Oops, an error
Loading. Please wait.
1,109,774 views 1,149 this week
37 commentsread comments
1 2 3 4 5
x 283
add to favorites
×
Save as Personal and add changes to this tab that will be seen only by you. Learn more ›
×
You can save this tab as Personal to edit and correct it or add notes. All changes will be seen only by you. Learn more »
launch autoscroll
font size
0
reset
how to read this tab
guitar tuner
backing track
0:00
0:00
edit
Autoscroll
slow
fast
+/-
esc
set tempo
stop
Author
Unregistered
Regular Tuning: E,B,G,D,A,E
Repeat 2 times!

e|---------------------|------------------------------------|
B|---------------------|------------------------------------|
G|---------------------|-0----------------------------------|
D|---4---0-----4-----0-|------4----0----4-----0----4----0---|
A|-2---2---------------|----2----2----0----0----------------|
E|-----------3----3----|-------------------------3----3-----|

e|---------|------------------------------------------------|
B|---------|--------------3p2------3p2-----3--3p2-----------|
G|---------|-------2--4b--------4-------2-----------4-------|
D|---------|--2h4-------------------------------------------|
A|---2---2-|------------------------------------------------|
E|-0---2---|------------------------------------------------|

e|----------------------------------------------------------|
B|--------------------------------------------------2h3---2-|
G|--11p9------9/7---7p6p0-----6p4p0---2----/4---/4----------| x2
D|--------12---------------7--------------------------------|
A|----------------------------------------------------------|
E|----------------------------------------------------------|


Hope you have fun with it!


************************************

| h  Hammer-on
| p  Pull-off
| b  Bend
| /  Slide up

************************************
Suggest correction
Creating personal tab
Creating personal tab
You can edit any tab online and save it as your Personal.

You can edit, replace or remove any tab part or add personal notes – all changes will be seen only by you.

Personal tabs can be accessed anytime from any device, even offline.
Learn more »
comments
print report bad tab
37 comments total. Showing first comments.
+13 reply
Stone_Cold_What 30 Apr 18, 2002 08:00 PM

dude this tab is soooooooo good thanks alot man

+12 reply
Floyd84yu 50 Apr 25, 2002 08:00 PM

Short but useful

0 reply
benny_boy14 30 May 06, 2002 08:00 PM

what the fuck you talkin about it its all right it sux because it doesn't have the whole thing but if you wanted to do the whole thing you gotta have no life other wse its good

guest
Wanna post a correction for this tab? Suggest correction