Oops, an error
Loading. Please wait.
140,561 views 195 this week
26 commentsread comments
1 2 3 4 5
x 91
add to favorites
launch autoscroll
font size
0
reset
how to read this tab
guitar tuner
backing track
0:00
0:00
×
Best way to learn
"One"
Autoscroll
slow
fast
+/-
esc
set tempo
stop
Tuning: Standard Tuning (Low to High: E, B, G, D, A, E)

Guitar 1 - James Hetfield Rythym Guitar
Guitar 2 - Kirk Hammett Lead Guitar

[Intro] 
(Guitar 1) 
(Clean)
Battle ground noises go on for 15 seconds before this....
     Bm        Gmaj7     Bm
e|-------------------------------------------|
B|-------------------------------------------|
G|---------------------------------------0---|
D|---4---0-----4---0-----4---0-----4---0-----|
A|-2---2---------------2---2-----------------|
E|-----------3---3---------------3---3-------|

      Bm        D/A     Gmaj7
e|-------------------------------------------|
B|-------------------------------------------|
G|-------------------------------------------|
D|---4---0-----4---0----4---0----------------|(x4)
A|-2---2-----0---0---------------2---2-------|
E|--------------------3---3----0---2---------|

[Intro Guitar Solo]
(Guitar 2) 
(Clean)
e|--------------------------------------------------------------------|
B|-----------------3p2-----3p2-----3-3p2------------------------------|
G|------2-4b6r4~-------4-------2---------4~---------------------------|
D|-2h4----------------------------------------------------------------|
A|--------------------------------------------------------------------|
E|--------------------------------------------------------------------|

e|--------------------------------------------------------------------|
B|----------------------------------------2h3-2~------2-3p2-----------|
G|-11p9---9p7-7p6p0-2-6p4p0-2-/4~~---/4----------/4-------2-/4~~------|
D|-----12-------------------------------------------------------------|
A|--------------------------------------------------------------------|
E|--------------------------------------------------------------------|
   
   *
e|-14-19--17p15-14-15-------------------------------------------------|
B|-15-----------------15~---------------------------------------------|
G|-16-----------------------------7p6-7--9p7-9--11p9-11--/12-12-11----|
D|-16-----------------------------------------------------------------|
A|--------------------------------------------------------------------|
E|--------------------------------------------------------------------|

e|----------------------7---------7-9-10-/12-10-9-7-9-9--10-7~--------|
B|-----7-8-10-------7-8---------7-------------------------------------|
G|---7------------7-----------7---------------------------------------|
D|-9------------9-----------9-----------------------------------------|
A|--------------------------------------------------------------------|
E|--------------------------------------------------------------------|
*Sweep Pick

[Verse Riff] 
(Guitar 1)
(Clean)
                      Bm               Gmaj7          
e|-----------------------------------------------------------|
B|-----------------------------------------------------------|
G|-----------------------------------------------------------|
D|---------------------4---0-0-4-0----4---0-4-4-0------------|
A|---2---2---2/3-2---2---2-----------------------------------|
E|-0---2---0------------------------3---3--------------------|

     Bm               D/A         Gmaj7
e|-----------------------------------------------------------|
B|-----------------------------------------------------------|
G|-----------------------------0-----------------------------|
D|---4---0-0-4-0-----4---0-4-4----4---0-0-4-0----------------|
A|-2---2-----------0---0-------------------------------------|
E|------------------------------3---3------------------------|
This is played differently during the acutal verse.

[Pre-Verse Fig. 1] 
(Guitar 1)
(Acoustic Guitar or Clean Electric)
   Em         G5     A5     D           G
E|------------------------|------------------------------------|
B|------------------------|-----------------0h3p0---0h3p0------|
G|------------------------|-------0-7-------------0---------4--|
D|-2h4-2----------0-------|-----7-----7------------------------|
A|---------4---5--------7-|--5-----------3---------------------|
E|-------2---3------3-5---|------------------------------------|
           ^^^
                 
   F              Em    *         Em      **
e|------1-------|---------0----|-------------------------|
B|--------1-----|-------0---0--|-----0-------------------|
G|---0------0---|---4-0--------|--------0--4-------------|
D|-3------------|-2------------|--2----------------------|
A|--------------|--------------|---------------3--2------|
E|--------------|--------------|-------------------------|
*1st ending
**2nd ending
^^^Only played once in the song

[Pre-Verse Fig. 2] 
(Guitar 2) 
(Acoustic Guitar or Clean Electric)
      D          G                       F                Em  *                
e|---------------------------------------------------------------------|
B|----3---3---3--5-3h5p3\1h3p1-0---------0-----------------------------|
G|------2--------5-4h5p4\2h4p2-0---------0--2---2-4-/5----4-------4----|
D|--0---------------------------------------3---3-5-/7----5---5---5-5--|
A|------------------------------------------------------------7-----7--|
E|---------------------------------------------------------------------|

   **
e|--------------|
B|--------------|
G|-2---2-4--5-4-|
D|-3---3-5--7-5-|
A|--------------|
E|--------------|
*1st ending
**2nd ending

[Verse Riff] 
(Guitar 1)
(Clean) 
(Guitar 2 plays the intro riff with this)
                             1st Ending   2nd Ending
e|-----|--------------------|---------|  |----------|
B|-----|--------------------|---------|  |----------|
G|-----|--------------------|---------|  |----------|
D|-----|---4--0-0-4-0---4---|-0-4-4-0-|  |----------|
A|-2/3-|-2--2---------------|---------|  |--3/5-(5)-|
E|-----|--------------3---3-|---------|  |--3/5-(5)-|

     Bm               D/A         Gmaj7
e|------------------------------------------------------|
B|------------------------------------------------------|
G|-----------------------------0-0----------------------|
D|---4---0-0-4-0-----4---0-4-4-----4---0-0-4-0----------|
A|-2---2-----------0---0--------------------------2---2-|
E|-------------------------------3---3----------0---2---|

[Verse Lyrics]
I can't remember anything
Can't tell if this is true or dream
Deep down inside I feel to scream
This terrible silence stops me
Now that the war is through with me
I'm waking up, I cannot see
That there's not much left of me
Nothing is real but pain now
Back in the womb it's much too real
In pumps life that I must feel
But can't look foward to reveal
Look to the time when I'll live
Fed through the tubes that sticks in me
Just like a wartime novelty
Tied to machines that make me be
Cut this life out from me

[Verse Riff 2]  
(Guitar 1) 
(Distortion)
e|--------------------------------------|
B|--------------------------------------|
G|--0--2-4-2-0---4---2-4-6-4-2----------|
D|--0--2-4-2-0-4-4---2-4-6-4-2----------|
A|--x--0-2-0-x-4-2---0-2-4-2-0--3--4--5-|
E|--3--------3-2------------------------|
                        Oh please god wake me...

[Verse 2 Lyrics]
G5   A5  B5    A5 G5 F#5 B5
Hold my breath as I wish for death
A5 B5 C#5 B5 A5 B5 C#5
Oh please god, wake me

[Guitar Solo 2] 
(Guitar 2)
(Clean)
e|-------------------------------10-8-7----7-8------|
B|-10p7---7-10-10-8-7----7h8p7----------10------8---|
G|------7-------------9--------7--------------------|
D|--------------------------------------------------|
A|--------------------------------------------------|
E|--------------------------------------------------|

e|-17p14----14-17-17-15-14-15p14----------15-17-19p17p15-19p17p15-19p17p15---|
B|-------15----------------------15-15-19------------------------------------|
G|---------------------------------------------------------------------------|
D|---------------------------------------------------------------------------|
A|---------------------------------------------------------------------------|
E|---------------------------------------------------------------------------|

                                               T        T         T
e|----15--------------------------------------20p17p13--20p17p13--20p17p13---|
B|-19----17-19-15-/8-8-8\7---/13-13-13-13-12---------------------------------|
G|----------------/7-7-7---7-/12-12-12-12-12---------------------------------|
D|---------------------------------------------------------------------------|
A|---------------------------------------------------------------------------|
E|---------------------------------------------------------------------------|
                                             *Tap using edge of pick

    T         T                      T              T
e|--20p17p13--20p17p13-t20p17p13----(p20)h12p13----(p20)h12p13---------------|
B|---------------------------------------------------------------------------|
G|---------------------------------------------------------------------------|
D|---------------------------------------------------------------------------|
A|---------------------------------------------------------------------------|
E|---------------------------------------------------------------------------|
                                  *(Silent Taps)

[Pre-Verse Fig. 1] 
(Guitar 1)
(Acoustic Guitar or Clean Electric)
   Em         G5     A5     D           G
E|------------------------|------------------------------------|
B|------------------------|-----------------0h3p0---0h3p0------|
G|------------------------|-------0-7-------------0---------4--|
D|-2h4-2----------0-------|-----7-----7------------------------|
A|---------4---5--------7-|--5-----------3---------------------|
E|-------2---3------3-5---|------------------------------------|
           ^^^
                 
   F              Em    *         Em      **
e|------1-------|---------0----|-------------------------|
B|--------1-----|-------0---0--|-----0-------------------|
G|---0------0---|---4-0--------|--------0--4-------------|
D|-3------------|-2------------|--2----------------------|
A|--------------|--------------|---------------3--2------|
E|--------------|--------------|-------------------------|
*1st ending
**2nd ending
^^^Only played once in the song

[Pre-Interlude Riff] 
(Guitar 1) 
(Distortion)
e|--------------------------------------|
B|--------------------------------------|
G|--------------------------------------|
D|--0--2-4-2-0-0-4---2-4-6-4-2----------|
A|--x--0-2-0-x-x-2---0-2-4-2-0--3--4--5-|
E|--3--------3-2------------------------|

                                         P.M----|
E|-------------------------------------------------------|
B|-------------------------------------------------------|
G|-------------------------------------------------------|
D|--0--2-4-2-0-0-4---2-4-6-4-2-----------2--4--2--0-----4|
A|--x--0-2-0-x-x-2---0-2-4-2-0--3--4--5--0--2--0--x--4--2|
E|--3--------3-2----------------------------------3--2---|

[Pre-Bridge Lyrics]
Now the world is gone, I'm just one
Oh god help me
Hold my breath as I wish for death
Oh please god help me

[Interlude Riff Fig. 1] 
(Guitar 1) 
(Distortion)
        P.M---|       P.M-------|      P.M---|       P.M--|
e|------------------------------------------------------------|
B|------------------------------------------------------------|
G|---------------------0--0--4-5-7---4------4------5-----5----|
D|--2----0-2-0---------0--0--5-7-9---4------4------5-----5----| (x6)
A|--3----2-3-0----2----5--5----------2------2------3-----3----|
E|----------------3----3--3---------------2---2--------3---3--|

The part on the studio recording has 2 guitars overdubbed for this part, but I
know that mose bands don't have enough guitarists to play the studio version
accuratley. And since this tab is meant for two guitarists, I edited this part
to the way Metallica plays it live.

[Interlude Riff Fig. 2] 
(Guitar 2)
(Distortion)
This is a much easier way to play it and can be done with one guitar, unlike the
harmonized version with two guitars. Overall, this whole interlude has 4 guitars
in it.
e|------------------------------------|
B|------------------------------------|
G|-9--9--7--9--/12--12--4--4--4--5----|
D|-x--x--x--x--/-x---x--x--x--x--x--5-|
A|-7--7--5--7--/10--10--2--2--2--3--x-|
E|----------------------------------3-|

e|------------------------------------|
B|------------------------------------|
G|-9--9--7--9--/12--12--8--8--8--9--9-|
D|-x--x--x--x--/-x---x--x--x--x--x--x-|
A|-7--7--5--7--/10--10--6--8--6--7--7-| (x2)
E|------------------------------------|

        P.M---|       P.M-------|      P.M---|       P.M--|
e|----------------------------------------------------------|
B|----------------------------------------------------------|
G|---------------------0--0--0-0---4------4------5-----5----|
D|--2----0-2-0---------0--0--0-0---4------4------5-----5----|
A|--3----2-3-0----2----5--5--5-5---2------2------3-----3----|
E|----------------3----3--3--3-3--------2---2--------3---3--|

                  P.M----------------|      P.M  P.M      P.M-|   P.M  P.M           
e|-------------------|----------------|---------------|----------------------|
B|-------------------|----------------|---------------|----------------------|
G|-------------------|----------------|---4-----4-----|-5--5-5--------5------|
D|--5--5--5--7--5----|-4--4--4--5--4\-|---4-----4-----|-5--5-5--5-----5------|
A|--7--7--7--7--7--5-|-5--5--5--5--5\-|---2-----2-----|-3--3-3--3-----3------|
E|-------------------|----------------|------2-----2--|------------3-----3---|

e|-----|
B|-----|
G|-----|
D|--5--|(Let ring on for 8 counts....then, the hard part:)
A|--7--|
E|--0--|

[Bridge Riff]
(Guitar 1) 
(Distortion)
  P.M--------|    P.M--------|    P.M---------|    P.M---------|
e|-------------------------------|------------------------------------|
B|-------------------------------|------------------------------------|
G|-------------------------------|------------------------------------|
D|-------------------------------|--------------------------------2---|
A|-------------2---------------2-|--------------2-(2)-------------2---|
E|-0-0-0-0-0-0-0---0-0-0-0-0-0-0-|--0-0-0-0-0-0-0-(0)-0-0-0-0-0-0-----|
       *               *         |      *                 *
                               (2x)   

  P.M---------|   P.M-------|
e|------------------------------------|
B|------------------------------------|
G|------------------------------------|
D|-------------------------------2-3--|
A|-------------2-(2)-------------2-3--| (x4)
E|-0-0-0-0-0-0-0-(0)-0-0-0-0-0-0------|
       *              *

[Bridge Lyrics]
Darkness
Imprisoning me
All that I see
Absolute Horror
I cannot live
I cannot die
Trapped in myself
Body my holding cell
Landmine
Has taken my site
Taken my speech
Taken my hearing
Taken my arms
Taken my legs
Taken my soul
Left me with life in hell

(*Alternate Picking)

[Bridge Fig. 1] 
(Guitar 1) 
(Distortion)
  P.M---------|     P.M---------|     P.M---------|      P.M--------|
e|-----------------------------------|------------------------------------|
B|-----------------------------------|------------------------------------|
G|-----------------------------------|------------------------------------|
D|-----------------------------------|------------------------------------|
A|-------------7-----------------7-8-|-------------5-----------------5/8--|
E|-0-0-0-0-0-0-------0-0-0-0-0-0-----|-0-0-0-0-0-0-------0-0-0-0-0-0------|
       *                 *                  *                 *

  P.M--------|       P.M--------|     P.M---------|     P.M--------|
E|-----------------------------------|------------------------------------|
B|-----------------------------------|------------------------------------|
G|-----------------------------------|------------------------------------|
D|-----------------------------------|------------------------------------|
A|-------------7-----------------7-8-|-------------5-----------------5----|
E|-0-0-0-0-0-0-------0-0-0-0-0-0-----|-0-0-0-0-0-0-------0-0-0-0-0-0---7--|
       *                 *                 *                 *

(*Alternate Picking)

[Post-Bridge Riff] 
(Guitar 1) 
(Distortion)
(Double Time:)
   P.M---------|   P.M--------|  P.M---|
E|-----------------------------------------|
B|-----------------------------------------|
G|-----------------------------------------|
D|--------------2--------------2--------3--|
A|--------------2--------------2--------3--|
E|--0-0-0-0-0-0----0-0-0-0-0-0----0-0-0----|(x4)
        *              *            *

  P.M--------------------------------------------------------------|
E|------------------------------------------------------------------|
B|------------------------------------------------------------------|
G|------------------------------------------------------------------|
D|------------------------------------------------------------------|
A|------------------------------------------------------------------| (x2)
E|-0-0-0-0-0-0--0-0-0-0-0-0--0-0-0--0-0-0-0-0-0--0-0-0-0-0-0--0-0-0-|
       *            *          *        *            *          *

(*Alternate Picking)

[Main Solo Backing Power Chords] 
(Guitar 1) 
(Distortion)
   P.M---------|   P.M--------|  P.M---|
e|-----------------------------------------|
B|-----------------------------------------|
G|-----------------------------------------|
D|--------------2--------------2--------3--|
A|--------------2--------------2--------3--|
E|--0-0-0-0-0-0----0-0-0-0-0-0----0-0-0----|(x4)
        *              *            *

  P.M-----------------------------|
E|---------------------------------|
B|---------------------------------|
G|---------------------------------|
D|---------------------------------|
A|---------------------------------|
E|-0-0-0-0-0-0--0-0-0-0-0-0--0-0-0-|
       *            *          *   
     
e|-----------------------------------------------------------|
B|-----------------------------------------------------------|
G|-----------------------------------------------------------|
D|--------------2--------------2-------------2--3------------|
A|--------------2--------------2-------------2--3--5-5-5-5-5-|
E|--0-0-0-0-0-0----0-0-0-0-0-0---0-0-0-0-0-0-------3-3-3-3-3-|(2x)
        *              *             *

e|-----------------------------------------------------------|
B|-----------------------------------------------------------|
G|-----------------------------------------------------------|
D|-----------------------------------------------------------|
A|-5-5-5-5-5---5-5-5-5-5--5-5-5-5-5--5-5-5-5-5-6--3-3-3-3-3--|
E|-3-3-3-3-3---3-3-3-3-3--3-3-3-3-3--3-3-3-3-3-4--1-1-1-1-1--|

e|------------------------------------------------|
B|------------------------------------------------|
G|------------------------------------------------|
D|------------------------------------------------|
A|-5-5-5-5-5---5-5-5-5-5--5-5-5-5-5-6--3-3-3-3-3--|
E|-3-3-3-3-3---3-3-3-3-3--3-3-3-3-3-4--1-1-1-1-1--|

  P.M-| P.M-|  P.M-| P.M-|
e|--------------------------------------------------------|
B|--------------------------------------------------------|
G|--------------------------------------------------------|
D|--------------------------------------------------------|
A|-----5------5-----5-----5--3-3-3-3-3--3-3-3-3-3--3-3-3--|
E|-3-3-3--3-3-3-3-3-3-3-3-3--1-1-1-1-1--1-1-1-1-1--1-1-1--|(x2)
*Alternate Picking

[Main Solo] 
(Guitar 2)
(Distortion)
(This one is really fast. Take it slow, then gradually speed it up over time.)
   T         T        T        T        T        T        T        T
e|-19p15p12--19p15p12-19p15p12-19p15p12-19p15p12-19p15p12-19p15p12-19p15p12|
B|-------------------------------------------------------------------------|
G|-------------------------------------------------------------------------|
D|-------------------------------------------------------------------------|
A|-------------------------------------------------------------------------|
E|-------------------------------------------------------------------------|

  T         T        T        T        T        T        T        T
e|-20p15p12--20p15p12-20p15p12-20p15p12-20p15p12-20p15p12-20p15p12-20p15p12-|
B|--------------------------------------------------------------------------|
G|--------------------------------------------------------------------------|
D|--------------------------------------------------------------------------|
A|--------------------------------------------------------------------------|
E|--------------------------------------------------------------------------|

   T         T        T        T        T        T        T        T
e|--------------------------------------------------------------------------|
B|-19p15p12--19p15p12-19p15p12-19p15p12-19p15p12-19p15p12-19p15p12-19p15p12-|
G|--------------------------------------------------------------------------|
D|--------------------------------------------------------------------------|
A|--------------------------------------------------------------------------|
E|--------------------------------------------------------------------------|

   T         T        T        T        T        T        T        T
e|--------------------------------------------------------------------------|
B|-20p15p12--20p15p12-20p15p12-20p15p12-20p15p12-20p15p12-20p15p12-20p15p12-|
G|--------------------------------------------------------------------------|
D|--------------------------------------------------------------------------|
A|--------------------------------------------------------------------------|
E|--------------------------------------------------------------------------|

   T         T        T        T        T        T        T        T
e|--------------------------------------------------------------------------|
B|-17p13p10--17p13p10-17p13p10-17p13p10-17p13p10-17p13p10-17p13p10-17p13p10-|
G|--------------------------------------------------------------------------|
D|--------------------------------------------------------------------------|
A|--------------------------------------------------------------------------|
E|--------------------------------------------------------------------------|

   T         T        T        T        T        T        T        T
e|--------------------------------------------------------------------------|
B|-18p13p10--18p13p10-18p13p10-18p13p10-18p13p10-18p13p10-18p13p10-18p13p10-|
G|--------------------------------------------------------------------------|
D|--------------------------------------------------------------------------|
A|--------------------------------------------------------------------------|
E|--------------------------------------------------------------------------|

   T        T     T     T     T     T      T     T    T    T    T    T
e|---------------------------------------|----------------------------------|
B|-17p12h14-17p12-17p10-17p12-17p10-17p8-|-17p10-17p8-17p7-17p8-17p7-17p5---|
G|---------------------------------------|----------------------------------|
D|---------------------------------------|----------------------------------|
A|---------------------------------------|----------------------------------|
E|---------------------------------------|----------------------------------|

e|------------------------------14-14-14-|-15-15-15--17-17-17---------------|
B|-/12-12-12--12-12-12--12--12-----------|---------------------15-15-15-----|
G|---------------------------------------|----------------------------------|
D|---------------------------------------|----------------------------------|
A|---------------------------------------|----------------------------------|
E|---------------------------------------|----------------------------------|

e|-17-17-17-17-|-22b24-------22b24----22b24~|~~~~~~~~\---------------15-----|
B|-------------|----------------------------|--------------/17--------------|
G|-------------|----------------------------|-------------------------------|
D|-------------|----------------------------|-------------------------------|
A|-------------|----------------------------|-------------------------------|
E|-------------|----------------------------|-------------------------------|

e|-17p15---------------15h17p15-------------|-15h17p15-------------15h17p15--|
B|--------17-15-17-19-----------17-15-17-19-|----------17-15-17-19-----------|
G|------------------------------------------|--------------------------------|
D|------------------------------------------|--------------------------------|
A|------------------------------------------|--------------------------------|
E|------------------------------------------|--------------------------------|

e|-----------15-|-17p15------------15-17p15---------15h17----|
B|-17-17-19-----|--------15-17-19------------17--15----------|
G|--------------|--------------------------------------------|
D|--------------|--------------------------------------------|
A|--------------|--------------------------------------------|
E|--------------|--------------------------------------------|

e|-19p17p15-----19p17p15-----19p17p15------19p17p15----------|
B|----------15-----------15------------15------------15------|
G|-----------------------------------------------------------|
D|-----------------------------------------------------------|
A|-----------------------------------------------------------|
E|-----------------------------------------------------------|

e|-19p17--------19p17--------19p17---------19p17p15----------|
B|----------15-----------15------------15--------------------|
G|-----------------------------------------------------------|
D|-----------------------------------------------------------|
A|-----------------------------------------------------------|
E|-----------------------------------------------------------|

e|-------15-------15-------15-------15-|-18b19-15-------15-18b19-15-------15-|
B|-18b20----18b20----18b20----18b20----|----------18b20-------------18b20----|
G|-------------------------------------|-------------------------------------|
D|-------------------------------------|-------------------------------------|
A|-------------------------------------|-------------------------------------|
E|-------------------------------------|-------------------------------------|

e|-19p17p15-17----17p15----15----------|-------------------------------------|
B|----------------------19-------------|-19p17p15-17-----15h17p15\13--15-----|
G|-------------------------------------|-------------------------------------|
D|-------------------------------------|-------------------------------------|
A|-------------------------------------|-------------------------------------|
E|-------------------------------------|-------------------------------------|

e|------------------------------------------|--------------------------------|
B|-13h15p13\12--13-----12h13p12----12-------|--------------------------------|
G|------------------------------14----14p12-|-14p12----12----12--14b-14b-14b-|
D|------------------------------------------|-------14----14-----------------|
A|------------------------------------------|--------------------------------|
E|------------------------------------------|--------------------------------|

e|----------------------------|---------------------|------------------------|
B|----------------------------|---------------------|------------------------|
G|-14b16-14b16------14p12-----|-12-----12-----------|------------------------|
D|-------------------------14-|----14------14-13-12-|------------------------|
A|----------------------------|---------------------|-14-13-12-10~~~~~-------|
E|----------------------------|---------------------|------------------------|

  P.M-----|     P.M----|      P.M-----|     P.M----|     
e|---------------------------|---------------------------|---------------|
B|---------15b----------15b--|---------15b----------15b--|-17b-17b-17-15-|
G|---------15b----------15b--|---------15b----------15b--|-17b-17b-17-15-|
D|-17--17--------17--17------|-17--17--------17--17------|---------------|
A|---------------------------|---------------------------|---------------|
E|---------------------------|---------------------------|---------------|

  P.M----|    P.M----|      
e|------------------------|----------------------------|
B|--------15b---------15b-|-17-----17-----15b-------15-|
G|--------15b---------15b-|-17-----17-----15b----------|
D|-17--17------17--17-----|----------------------------|
A|------------------------|----------------------------|
E|------------------------|----------------------------|

e|-------15--------15--------15--------15-|-------15--------15--------------|
B|-18b20-----18b20-----18b20-----18b20----|-18b20-----18b20-----18b20~~~~~~-|
G|----------------------------------------|---------------------------------|
D|----------------------------------------|---------------------------------|
A|----------------------------------------|---------------------------------|
E|----------------------------------------|---------------------------------|
Phew! Then you play this:

[Pre-Ending Riff] 
(Guitar 1)
(Distortion)
 P.M-------------|          P.M------------------------------------|
e|-----------------------------------------------------------------------|
B|-----------------------------------------------------------------------|
G|-----------------------------------------------------------------------|
D|-----------------------------------------------------------------------|
A|---------------------------5-5-5----5-5-5----4-4-4---3-3-3---2-2-2-----|
E|-3-3-3--3-3-3--3-------------------------------------------------------|
   Alternate Picking ^

[Post-Bridge Riff] 
(Guitar 1) 
(Distortion)
(Double Time:)
   P.M---------|   P.M--------|  P.M---|
E|-----------------------------------------|
B|-----------------------------------------|
G|-----------------------------------------|
D|--------------2--------------2--------3--|
A|--------------2--------------2--------3--|
E|--0-0-0-0-0-0----0-0-0-0-0-0----0-0-0----|(x4)
        *              *            *

  P.M--------------------------------------------------------------|
E|------------------------------------------------------------------|
B|------------------------------------------------------------------|
G|------------------------------------------------------------------|
D|------------------------------------------------------------------|
A|------------------------------------------------------------------| (x2)
E|-0-0-0-0-0-0--0-0-0-0-0-0--0-0-0--0-0-0-0-0-0--0-0-0-0-0-0--0-0-0-|
       *            *          *        *            *          *

[Harmony Solo] 
(Guitar 1)
(Distortion)
e|----------------------------------------------------------------------|
B|-8-8-8-7b----10-10-10-8b----12-12-12-10--12p10\8-10--10p8\7-8--8p7\5-7|
G|----------7--------------9--------------------------------------------|
D|----------------------------------------------------------------------|
A|----------------------------------------------------------------------|
E|----------------------------------------------------------------------|

e|----------|
B|-7p5\3-5--|
G|----------|
D|----------|
A|----------|
E|----------|

e|--------------------------------------------------------------------------|
B|-8-8-8-7b----10-10-10-8b----12-12-12-10--12p10\8-10--10p8\7-8--13p12\10-12|
G|----------7--------------9------------------------------------------------|
D|--------------------------------------------------------------------------|
A|--------------------------------------------------------------------------|
E|--------------------------------------------------------------------------|

e|-------------|
B|-12p10\8-10--|
G|-------------|
D|-------------|
A|-------------|
E|-------------|

e|-----------------------------------------------------------------------|
B|-8-8-8-7b----10-10-10-8b----12-12-12-10--12p10\8-10--10p8\7-8--8p7\5-7-|
G|----------7--------------9---------------------------------------------|
D|-----------------------------------------------------------------------|
A|-----------------------------------------------------------------------|
E|-----------------------------------------------------------------------|

e|----------|
B|-7p5\3-5--|
G|----------|
D|----------|
A|----------|
E|----------|

e|------------------------------------------------------------------------|
B|-8-8-8-7b----10-10-10-8b----12-12-12-10--12p10\8-10--10p8\7-8--8p7\5-7--|
G|----------7--------------9----------------------------------------------|
D|------------------------------------------------------------------------|
A|------------------------------------------------------------------------|
E|------------------------------------------------------------------------|
                                                           
e|----------------------------------------------|
B|-7p5\3-5--5p3\2-3--3p2p0-2--------------------|
G|----------------------------6p4\2-4--4p2p0-2--|
D|----------------------------------------------|
A|----------------------------------------------|
E|----------------------------------------------|
(*All bends are 1/4 bends on this harmonized solo*)

[Harmony Solo] 
(Guitar 2) 
(Distortion)
e|--------------------------------------------------------------------|
B|-------------7-7-7-------8-8-8-7--8-7---7--7------------------------|
G|-9-9-9-7b-----------9b----------------9------9-7-9--9p7-6-7--7-6---6|
D|----------9------------9-----------------------------------------9--|
A|--------------------------------------------------------------------|
E|--------------------------------------------------------------------|

e|---------------------------------------------------------------------|
B|-------------7-7-7-------8-8-8-7--8-7---7--7--------10-8-7-8--8-7---7|
G|-9-9-9-7b-----------9b----------------9------9-7-9----------------9--|
D|----------9------------9---------------------------------------------|
A|---------------------------------------------------------------------|
E|---------------------------------------------------------------------|

e|--------------------------------------------------------------------|
B|-------------7-7-7-------8-8-8-7--8-7---7--7------------------------|
G|-9-9-9-7b-----------9b----------------9------9-7-9--9-7-6-7--7-6---6|
D|----------9------------9-----------------------------------------9--|
A|--------------------------------------------------------------------|
E|--------------------------------------------------------------------|

e|--------------------------------------------------------------------|
B|-------------7-7-7-------8-8-8-7--8-7---7--7------------------------|
G|-9-9-9-7b-----------9b----------------9------9-7-9--9-7-6-7--7-6---6|
D|----------9------------9-----------------------------------------9--|
A|--------------------------------------------------------------------|
E|--------------------------------------------------------------------|

e|-----------------------------------|
B|-----------------------------------|
G|-6---------------------------------|
D|---9-7-9--9-7-5-7--7-5-4-5--4-2-0-2|
A|-----------------------------------|
E|-----------------------------------|

(All the hammer ons and slides are the same as in the first harmony, so you can
work those into this one. ^)

(*All bends are 1/4 bends on this harmonized solo*)

[Final Riff]
(Guitar 1) 
(Distortion)
  P.M---------|  P.M--------|  P.M---|
e|--------------------------------------|
B|--------------------------------------|
G|--------------------------------------|
D|-------------2-------------2-------3--|
A|-------------2-------------2-------3--|
E|-0-0-0-0-0-0---0-0-0-0-0-0---0-0-0----|(x4)
       *             *           *

  P.M-|  P.M-|  P.M-| P.M-|  
e|-----------------------------|
B|-----------------------------|
G|-----------------------------|
D|-----------------------------|
A|-----5------5------5------5--|
E|-3-3-3--3-3-3--3-3-3--3-3-3--|
  
  P.M---------| P.M---------| P.M---|
e|--------------------------------------|
B|--------------------------------------|
G|--------------------------------------|
D|-------------2-------------2-------3--|
A|-------------2-------------2-------3--|
E|-0-0-0-0-0-0---0-0-0-0-0-0---0-0-0----|
       *             *           *

  P.M-|  P.M-|  P.M-| P.M-|  
e|-----------------------------|
B|-----------------------------|
G|-----------------------------|
D|-----------------------------|
A|-----5------5------5------5--|
E|-3-3-3--3-3-3--3-3-3--3-3-3--|

  P.M---------|    P.M-| P.M-|
e|--------------------------------|
B|--------------------------------|
G|--------------------------------|
D|--------------------------------|
A|-------------2-2------3------3--|
E|-0-0-0-0-0-0-0-0--1-1-1--1-1-1--|(x3)
        *

  P.M---------|    P.M-|  P.M-|  P.M-|  P.M-| 
e|-----------------------------------------------|
B|-----------------------------------------------|
G|-----------------------------------------------|
D|-----------------------------------------------|
A|-------------2-2------5------5------5------5---|
E|-0-0-0-0-0-0-0-0--3-3-3--3-3-3--3-3-3--3-3-3---|
       *

  P.M---------| P.M---------| P.M---|
e|--------------------------------------|
B|--------------------------------------|
G|--------------------------------------|
D|-------------2-------------2-------3--|
A|-------------2-------------2-------3--|
E|-0-0-0-0-0-0---0-0-0-0-0-0---0-0-0----|
       *             *           *

  P.M----------------------|
e|---------------------------|
B|---------------------------|
G|---------------------------|
D|---------------------------|
A|---------------------------|
E|-0-0-0-0-0-0--0-0-0-0-0-0--|
       *            *       

(*Alternate Picking)



************************************

| p    Pull-off
| r    Release
| b    Bend
| ~    Vibrato
| h    Hammer-on
| /    Slide up
| \    Slide down
| (n)  Ghost note
| x    Dead note
| t    Tapping

************************************
Suggest correction
comments
print report bad tab
26 comments total. Showing first comments.
0 reply
fender512 1,316 Aug 07, 2004 08:00 PM

thanks for the 2nd guitar on the pre-verse. good tab

0 reply
MCRrocks 35 Mar 15, 2005 07:00 PM

dude this is an awesoem tab, everything is soo perfect except for one little tiny thing.
e|---------------------
B|---------------------
G|---------------------
D|---------------------
A|---2---2---2/3-2---2-
E|-0---2---0-----------
right in the beginning of the first verse, should be
e|---------------------
B|---------------------
G|---------------------
D|---------------------
A|---2---2---2/4-2---2-
E|-0---2---0-----------
other than that this tab is amazing

0 reply
SabBloodySab1 50 Apr 06, 2005 08:00 PM

Very awesome man, well done...!

guest
You may want to rate the tab now too:
select rating
Wanna post a correction for this tab? Suggest correction