Oops, an error
Loading. Please wait.
37,654 views 18 this week
7 commentsread comments
1 2 3 4 5
x 31
add to favorites
×
Save as Personal and add changes to this tab that will be seen only by you. Learn more ›
×
You can save this tab as Personal to edit and correct it or add notes. All changes will be seen only by you. Learn more »
launch autoscroll
font size
0
reset
guitar tuner
backing track
0:00
0:00
edit
Autoscroll
slow
fast
+/-
esc
set tempo
stop
Author
[Intro] (Play x8, use distortion)
G|-----|---4~-------------------------|
D|-----|---5~-------4~----------------|
A|-7~--|------------6~-----------7~---|
E|-0~--|-------------------------0~---|

[Verse Riff 1]
G|-----------------------------------|
D|-----------------------------------|
A|-7-----7-----7---7-----7-----7-----|
E|---0-0---0-0---0---0-0---0-0---0---|

G|--------------------------------------|
D|--------------------------------------|
A|-5-----5-----5------------------------|
E|---7-7---7-7---7-7-7-7-7-7-7-7-2-2-2--|

G|-----------------------------------|
D|-----------------------------------|
A|-7-----7-----7---7-----7-----7-----|
E|---0-0---0-0---0---0-0---0-0---0---|

G|--------------------------------------|
D|--------------------------------------|
A|-5-----5-----5------------------------|
E|---7-7---7-7---7-7-7-7-7-7-7-7-2-2-2--|

G|-----------------------------------|
D|-----------------------------------|
A|-7-----7-----7---7-----7-----7-----|
E|---0-0---0-0---0---0-0---0-0---0---|

G|--------------------------------------|
D|--------------------------------------|
A|-5-----5-----5------------------------|
E|---7-7---7-7---7-7-7-7-7-7-7-7-2-2-2--|

G|-----------------------------------|
D|-----------------------------------|
A|-7-----7-----7---7-----7-----7-----|
E|---000---0-0---0---000---0-0---0---|

G|-----------------------------------|
D|-----------------------------------|
A|-5-----5-----5---------------------|
E|---777---7-7---7-7-555-7-2-2-7-5---|

G|-----------------------------------|
D|-----------------------------------|
A|-7-----7-----7---7-----7-----7-----|
E|---000---0-0---0---000---0-0---0---|

G|-----------------------------------|
D|-----------------------------------|
A|-5-----5-----5---------------------|
E|---777---7-7---7-7-555-7-2-2-7-5---|

G|-----------------------------------|
D|-----------------------------------|
A|-7-----7-----7---7-----7-----7-----|
E|---000---0-0---0---000---0-0---0---|

G|--------------------------------------|
D|-----------------555-3----------------|
A|-5-----5-----5---------3-5------------|
E|---777---7-7---------------5-7--------|

[Bass Cryout Riff] (Play x4, use distortion and wah)
G|--------------14-------------16-------------17----|
D|-/14-14-14-14----14-14-14-14----14-14-14-14-------|
A|--------------------------------------------------|
E|--------------------------------------------------|

G|-----------------------------------------|
D|-14-14-14-14-14---14-14h15---15-15h14----|
A|-----------------------------------------|
E|-----------------------------------------|

G|--------------17-------------16-------------14----|
D|--14-14-14-14----14-14-14-14----14-14-14-14-------|
A|--------------------------------------------------|
E|--------------------------------------------------|

G|--------------------------------------|------|
D|-14-14-14-14-14---14-14h15---15-15h14-|-14\--|
A|--------------------------------------|------|
E|--------------------------------------|------|

[Band Riff] (Play x4)
G|---------------------------------|
D|---------------------------------|
A|--------------------2---------3--|
E|-0-0-0-0-5--0-0-0-0---0-0-0-0----|

G|---------------------------|
D|---------------------------|
A|---------------------------|
E|-0-0-0-0-0--0-0-1--1-1-0---|

G|---------------------------------|
D|---------------------------------|
A|---------3----------2------------|
E|-0-0-0-0----0-0-0-0---0-0-0-0-5--|

G|---------------------------|
D|---------------------------|
A|---------------------------|
E|-0-0-0-0-0--0-0-1--1-1-0---|

[Verse Riff 2/Solo 1 Backing]
G|----------------------------------------------|
D|----------------------------------------------|
A|-5h7~----5h7~----5h7---5h7~----5h7-----5h7----|
E|-----0-0-----0-0-----0-----0-0-----0-0-----0--|

G|-------------------------------------|
D|-------------------------------------|
A|-5-----5------5----------------------|
E|---7-7---7-7----7-5h7-7-7-7-7-2-2-2--|

G|----------------------------------------------|
D|----------------------------------------------|
A|-5h7~----5h7~----5h7---5h7~----5h7-----5h7----|
E|-----0-0-----0-0-----0-----0-0-----0-0-----0--|

G|-------------------------------------|
D|-------------------------------------|
A|-5-----5------5----------------------|
E|---7-7---7-7----7-7-7-7-7-5-2-2-2----|

G|-----------------------------------|
D|-----------------------------------|
A|-7-----7-----7---7-----7-----7-----|
E|---000---0-0---0---000---0-0---0---|

G|-----------------------------------|
D|-----------------------------------|
A|-5-----5-----5---------------------|
E|---777---7-7---7-7-777-7-7-2-2-2---|

G|-----------------------------------|
D|-----------------------------------|
A|-7-----7-----7---7-----7-----7-----|
E|---000---0-0---0---000---0-0---0---|

G|-----------------------------------|
D|-----------------------------------|
A|-5-----5-----5---------------------|
E|---777---7-7---7-7-777-7-7-2-2-2---|

G|-----------------------------------|
D|-----------------------------------|
A|-7-----7-----7---7-----7-----7-----|
E|---000---0-0---0---000---0-0---0---|

G|-----------------------------------|
D|-----------------------------------|
A|-5-----5-----5---------------------|
E|---777---7-7---7-7-777-7-7-2-2-2---|

G|-----------------------------------|
D|-----------------------------------|
A|-7-----7-----7---7-----7-----7-----|
E|---000---0-0---0---000---0-0---0---|

G|-----------------------------------|
D|-----------------------------------|
A|-5-----5-----5---------------------|
E|---777---7-7---7-7-777-7-7-2-2-2---|

G|--------------------------------------|
D|--------------------------------------|
A|-2-2---222-2-0-2-2-2---222-2---2-2-0--|
E|-----0-----------------------0--------|

G|---------------------------|
D|---------------------------|
A|-000-0-2-0-----------------|
E|-----------2-2-222-2-5-2---|

G|--------------------------------------|
D|--------------------------------------|
A|-2-2---222-2-0-2-0-0---000-0-2-0------|
E|-----0---------------------------2-2--|

G|--------------------------|
D|--------------------------|
A|--------------------------|
E|-222-2-0-2-0--0-0-0-0~----|

G|---------------------------------------------|
D|---------------------------------------------|
A|-2---2-2-2-2---0--0-0-0-0--------------------|
E|--------------------------2--2-2-2-2---0~----|

[Bass Interlude]
G|------11----9-----9-----9-----|
D|---11-----7---7-9---9---------|
A|-9--------------------7---7---|
E|------------------------------|

G|------11----9-----9-----------|
D|---11-----7---7-9---9---------|
A|-9--------------------7~------|
E|------------------------------|

G|------11----9-----9-----9-----|
D|---11-----7---7-9---9---------|
A|-9--------------------7---7---|
E|------------------------------|

G|------11----9-----9---6h9-9-9-9-9-6------|
D|---11-----7---7-9---9--------------------|
A|-9---------------------------------------|
E|-----------------------------------------|

G|------11----9-----9-----9------|
D|---11-----7---7-9---9----------|
A|-9--------------------7---0-7--|
E|-------------------------------|

G|------11----9-----9-----------|
D|---11-----7---7-9---9---------|
A|-9--------------------7~------|
E|------------------------------|

G|------11----9-----9-----9---------|
D|---11-----7---7-9---9-------------|
A|-9--------------------7---0-7-----|
E|------------------------------10--|

G|------11----9----6h9-9-9-9-9-6-------------|
D|---11-----7---7----------------9-7---------|
A|-9---------------------------------9-7-----|
E|-------------------------------------------|

G|------11----9-----9-----9-------|
D|---11-----7---7-9---9-----------|
A|-9--------------------7---0-7-8-|
E|--------------------------------|

G|------11----9-----9--------9-------------|
D|---11-----7---7-9---9-9/11---11-9--------|
A|-9--------------------------------12-11--|
E|-----------------------------------------|

G|------11----9-----9-----9---------|
D|---11-----7---7-9---9-------------|
A|-9--------------------7---0-7-----|
E|------------------------------10--|

G|------11----9-----9---9-7-------------|
D|---11-----7---7-9---9-----9-7---------|
A|-9----------------------------9-7-----|
E|--------------------------------------|

G|------11----9-----9-----9------|
D|---11-----7---7-9---9----------|
A|-9--------------------7---0-7--|
E|-------------------------------|

G|------11----9-----9------------------|
D|---11-----7---7-9---9--9-7-----------|
A|-9-------------------------9-7---7---|
E|-------------------------------9-----|

G|------11----9-----9-----9---------|
D|---11-----7---7-9---9-------------|
A|-9--------------------7---0-7-----|
E|------------------------------10--|

G|--------11-----9-----9-----9---------|
D|-----11------7---7-9---9-------------|
A|-9-9---------------------7---0-7-----|
E|----------------------------------10-|

G|------11----9-----9-----9-------|
D|---11-----7---7-9---9-----------|
A|-9--------------------7---0-7-8-|
E|--------------------------------|

G|------11----9-----9---6h9-9-9-9-9-6-------|
D|---11-----7---7-9---9---------------9-----|
A|-9----------------------------------------|
E|------------------------------------------|

G|--------11-----9-----9-----9---------|
D|-----11------7---7-9---9-------------|
A|-9-9---------------------7---0-7-----|
E|----------------------------------10-|

G|------11----9----6h9-9-9-6h9-9-9-6h9-6----------|
D|---11-----7---7------------------------9-7------|
A|-9-----------------------------------------9-7--|
E|------------------------------------------------|

G|------11----9-----9------------------|
D|---11-----7---7-9---9---------5-7----|
A|-9--------------------7---7-9--------|
E|-------------------------------------|

                      |Triplet|
G|------11----9----11-11-11-11-11-11-9--------------|
D|---11-----7---7----------------------11-9----9----|
A|-9----------------------------------------11------|
E|--------------------------------------------------|

[Bass Interlude Part 2] (Play x4)
G|---------11-------9---------9--------------------|
D|------11----11-7----7-6-7-9---9-6---------7-6----|
A|-9--9-----------------------------9-7---7-----7--|
E|-------------------------------------------------|

[Bass Interlude Part 3] (Play x2)
G|----------------------------------------------------------------|
D|---------11----11-----11-14-11-12--12-11------------------------|
A|-9--9-12----12-----12--------------------12---------11-14-11----|
E|--------------------------------------------12---12-------------|

[Bass Interlude Part 4] (Play x2)
G|--------------------|Triplet|------------|Triplet|------------------|
D|-----------11----11-11-11-11-11-14-11-12-12-12-12--12-11------------|
A|-9--999-12----12-----------------------------------------12-11------|
E|---------------------------------------------------------------12---|

G|---------------------|
D|---------------------|
A|----------11-14-11---|
E|-12-12-12------------|

[Solo 2 Backing]
G|-------------------------|
D|-------------------------|
A|-----------------4--4----|
E|-2--2-5--5-0--0----------|

G|--------------------------|
D|--------------------------|
A|----------------4-4--4-0--|
E|-2--2-5--5-0--0-----------|

G|----------------------------------|
D|----------------------------------|
A|------------------4-4-2-4-4-4-4---|
E|-2--2-5--5-0--0-0-----------------|

G|------------------------------------|
D|------------------------------------|
A|----------------------------4--4-4--|
E|-2--2-2-2-5--5-5-5-0--0-0-0---------|

[Bass Solo]
G|-22b-21~------------21----21----------------|
D|-----------19-19-19----17----16-17-19-------|    
A|--------------------------------------------|    
E|--------------------------------------------|

G|-16h17-16-14-16h17-16-14-16h17-16-14-16h17-16-14-16h17-16------|
D|-----------------------------------------------------------17~-|
A|---------------------------------------------------------------|
E|---------------------------------------------------------------|

G|-16h17-19-17-17-16----16h17h16----16-17-16--|
D|-------------------17----------17-----------|
A|--------------------------------------------|
E|--------------------------------------------|

G|-16-------16-------12-------12-------|
D|----17-------17-------14-------14----|   
A|-------19-------19-------15-------15-|   
E|-------------------------------------|    
                                           
G|-14-11----14-11----11-------11---------|  
D|-------12-------12----12-------12------|  
A|-------------------------14-------14---|  
E|---------------------------------------| 

G|-22b--19-21-22b--19-21-19h21h19-17-19-17h19h17-15h17h15--------|
D|---------------------------------------------------------------|   
A|---------------------------------------------------------------|  
E|---------------------------------------------------------------|  
                                                                     
G|-14-15-14h15h14-12-14-12h14h12-10h12h10-9h10h9-----------|          
D|-----------------------------------------------10-9-9/---|          
A|---------------------------------------------------------|          
E|---------------------------------------------------------|       

[Post-Solo]
G|--------------------------------|
D|--------------------------------|
A|-0~------3~-----3~--------0~----|
E|-----0~--------------0~---------|

[Final Solo Backing] 
(Play x2)
G|--------------------------------------|
D|--------------------------------------|
A|-2-2---222-2-0-2-2-2---222-2---2-2-0--|
E|-----0-----------------------0--------|

G|---------------------------|
D|---------------------------|
A|-000-0-2-0-----------------|
E|-----------2-2-222-2-5-2---|

G|--------------------------------------|
D|--------------------------------------|
A|-2-2---222-2-0-2-0-0---000-0-2-0------|
E|-----0---------------------------2-2--|

G|---------------------------|
D|---------------------------|
A|------------------------7--|
E|-222-2-0-2-0--0-0-0-0------|

[Band Riff] 
(Play x4)
G|---------------------------------|
D|---------------------------------|
A|--------------------2---------3--|
E|-0-0-0-0-5--0-0-0-0---0-0-0-0----|

G|---------------------------|
D|---------------------------|
A|---------------------------|
E|-0-0-0-0-0--0-0-1--1-1-0---|

G|---------------------------------|
D|---------------------------------|
A|---------3----------2------------|
E|-0-0-0-0----0-0-0-0---0-0-0-0-5--|

G|---------------------------|
D|---------------------------|
A|---------------------------|
E|-0-0-0-0-0--0-0-1--1-1-0---|

[Outro] 
(Play x2)
G|-----------------------------------------|
D|-----------------------------------------|
A|--------------------2------------3-------|
E|-0-0-0-0-5--0-0-0-0------0-0-0-0---------|

G|-------------4h6-----5h7h5--------|
D|-----7h9--------------------------|
A|----------------------------------|
E|-0-0-----0-0-----0-0--------------|

G|---------------------------------|
D|---------------------------------|
A|---------3----------2------------|
E|-0-0-0-0----0-0-0-0---0-0-0-0-5--|

G|-----5h7-----4h6--------------------|
D|----------------------(7h9h7)-------|
A|------------------------------------|
E|-0-0-----0-0-----0-0----------------|

G|-------|
D|-------|
A|-------|
E|---0~--|



************************************

| ~  Vibrato
| /  Slide up
| h  Hammer-on
| \  Slide down
| b  Bend


************************************

            
            
Suggest correction
Creating personal tab
Creating personal tab
You can edit any tab online and save it as your Personal.

You can edit, replace or remove any tab part or add personal notes – all changes will be seen only by you.

Personal tabs can be accessed anytime from any device, even offline.
Learn more »
comments
print report bad tab
7 comments total. Showing first comments.
0 reply
Dethfret 10 Aug 04, 2009 10:58 PM

awesome :) but in the first verse from 1:04-1:05 where it goes
|7-7-7-7-7-7-7-7-2-2-2--| it should go |7-7-7-7-7-7-7-722-2-2-| super subtle. for both of the band riff, the first part should have one open note removed, as such;
A|--------------------2---------3--|
E|-0---0-0-5--0-0-0-0---0-0-0-0----|

A|---------3----------2------------|
E|-0---0-0----0-0-0-0---0-0-0-0-5--|
although the outro has the open note added to it.
best bass tab for this song i've seen tho :)

+1 reply
KShift 10 Dec 22, 2009 04:34 AM

Nice. Thanks man

0 reply
mikeyknowsbetter 10 Sep 14, 2010 06:52 AM

Good job man

guest
You may want to rate the tab now too:
select rating
Wanna post a correction for this tab? Suggest correction