Oops, an error
Loading. Please wait.

Orion Tab

version 2
version 2
653,935 views 747 this week
90 commentsread comments
1 2 3 4 5
excellent!
x 154
add to favorites
launch autoscroll
font size
0
reset
how to read this tab
guitar tuner
Tab Pro tools
  • play this tab
  • loop segment
  • change instrument
  • show fretboard
  • metronome
×
Best way to learn
"Orion"
Autoscroll
slow
fast
+/-
esc
set tempo
stop
Contributor
#----------------------------------PLEASE NOTE---------------------------------#
#This file is the author's own work and represents their interpretation of the #
#song. You may only use this file for private study, scholarship, or research. #
#------------------------------------------------------------------------------#

                                      ORION
                            As recorded by Metallica
                    

Words and Music by James Hetfield, Lars Ulrich and Cliff Burton

Gtr I (E A D G B E) 
Gtr II (E A D G B E) 
Gtr III (E A D G B E) 
Gtr IV (E A D G B E) 
Gtr V (E A D G B E)

[Intro]
   
    Moderate Rock Q=128
    E5                      Bm/D       Ebm
   4/4
    Gtr I
                                             8x
e||-----------|------------|----------|-------||
B||o----------|------------|----------|------o||
G||-----------|------------|-4--------|-------||
D||-----------|------------|----------|-4-----||
A||o-7--------|-(7)--------|-5--------|-6----o||
E||--0--------|-(0)--------|----------|-------||


     Em                                    Bm/D              Ebm/B
    Gtr II
       PM|   PM|   PM      PM|   PM|   PM    PM|   PM|         PM|   PM|
                                                                              3x
e||------------------|-------------------|-----------------|-------------------||
B||o-----------------|-------------------|-----------------|------------------o||
G||------------------|-------------------|-----------------|-------------------||
D||--5-----5-----5---|--4------5-----5---|-4-----4-----4-4-|-4-----4-----4-4---||
A||o-7-----7-----7---|--7------7-----7---|-5-----5-----5-5-|-6-----6-----6-6--o||
E||----0-0---0-0---0-|-----0-0---0-0---0-|---7-7---7-7-----|---7-7---7-7-------||
|
|   Gtr I
|                                                                             3x
e||------------------|-------------------|-----------------|-------------------||
B||o-----------------|-------------------|-----------------|------------------o||
G||------------------|-------------------|-4---------------|-------------------||
D||------------------|-------------------|-----------------|-4-----------------||
A||o-7---------------|-(7)---------------|-5---------------|-6----------------o||
E||--0---------------|-(0)---------------|-----------------|-------------------||


   Em                                    Bm/D              Ebm/B
     PM|   PM|   PM      PM|   PM|   PM    PM|   PM|         PM--|   PM|
e|-----------------|-------------------|-----------------|-------------------|
B|-----------------|-------------------|-----------------|-------------------|
G|-----------------|-------------------|-----------------|-------------------|
D|-5-----5-----5---|--4------5-----5---|-4-----4-----4-4-|-4-------4-----4-4-|
A|-7-----7-----7---|--7------7-----7---|-5-----5-----5-5-|-6-------6-----6-6-|
E|---0-0---0-0---0-|-----0-0---0-0---0-|---7-7---7-7-----|---7-7-7---7-7-----|
|
e|-----------------|-------------------|-----------------|-------------------|
B|-----------------|-------------------|-----------------|-------------------|
G|-----------------|-------------------|-4---------------|-------------------|
D|-----------------|-------------------|-----------------|-4-----------------|
A|-7---------------|-(7)---------------|-5---------------|-6-----------------|
E|-0---------------|-(0)---------------|-----------------|-------------------|


     Em                                    Bm/D              Ebm/B
       PM|   PM|   PM      PM|   PM|   PM    PM|   PM|         PM|   PM|
e||------------------|-------------------|-----------------|-------------------||
B||o-----------------|-------------------|-----------------|------------------o||
G||------------------|-------------------|-----------------|-------------------||
D||--5-----5-----5---|--4------5-----5---|-4-----4-----4-4-|-4-----4-----4-4---||
A||o-7-----7-----7---|--7------7-----7---|-5-----5-----5-5-|-6-----6-----6-6--o||
E||----0-0---0-0---0-|-----0-0---0-0---0-|---7-7---7-7-----|---7-7---7-7-------||
|
e||------------------|-------------------|-----------------|-------------------||
B||o-----------------|-------------------|-----------------|------------------o||
G||------------------|-------------------|-4---------------|-------------------||
D||------------------|-------------------|-----------------|-4-----------------||
A||o-7---------------|-(7)---------------|-5---------------|-6----------------o||
E||--0---------------|-(0)---------------|-----------------|-------------------||


                                                         1.,2.,3.
     N.C.    A5     E5    C5         N.C.    C5     E5    A5
     PM----|                         PM----|
e||---------------------|----------|--------------------|-------||
B||o--------------------|----------|--------------------|------o||
G||----------2--(2)-----|-5--------|---------5--(5)-----|-2-----||
D||----------2--(2)-2---|-5--------|---------5--(5)-2---|-2-----||
A||o---------0--(0)-2---|-3--------|---------3--(3)-2---|-0----o||
E||--0-0-0-0--------0---|----------|-0-0-0-0--------0---|-------||


   4.
   A5  N.C.                    A5N.C.    E5N.C.      C5N.C.
       PM--------------------|   PM----|   PM----|     PM------------------|
e|-------------------||----------------------------|---------------------------|
B|-------------------||o---------------------------|---------------------------|
G|-2-----------------||--------2---------4---------|-5-------------------------|
D|-2-----------------||--------2---------2---------|-5-------------------------|
A|-0-----------------||o-------0---------2---------|-3-------------------------|
E|-----0-0-0-1-1-1-0-||--0-0-0---0-0-0-0---0-0-0-0-|---0-0-0-0-0-0-0-1-1-1-0---|


         C5N.C.    E5N.C.      A5N.C.                          Em
   PM--|   PM----|   PM----|     PM------------------|           PM|   PM|   PM
                                                       3x
e|---------------------------|--------------------------||-||------------------|
B|---------------------------|-------------------------o||-||o-----------------|
G|-------5---------4---------|-2------------------------||-||------------------|
D|-------5---------2---------|-2------------------------||-||--5-----5-----5---|
A|-------3---------2---------|-0-----------------------o||-||o-7-----7-----7---|
E|-0-0-0---0-0-0-0---0-0-0-0-|---0-0-0-0-0-0-0-1-1-1-0--||-||----0-0---0-0---0-|


                     Bm/D              Ebm/B
     PM|   PM|   PM    PM|   PM|         PM|   PM|
e|-----------------|-----------------|------------------||
B|-----------------|-----------------|-----------------o||
G|-----------------|-----------------|------------------||
D|-4-----5-----5---|-4-----4-----4-4-|-4-----4-----4-4--||
A|-7-----7-----7---|-5-----5-----5-5-|-6-----6-----6-6-o||
E|---0-0---0-0---0-|---7-7---7-7-----|---7-7---7-7------||


   Em                                                    Bm/D
   Gtr III
e|-------------------------|---------------------------|--------------------|
B|-------------------------|---------------------------|--------------------|
G|-------------------------|---------------------------|--------------------|
D|-----4h5p4---4-4h5p4-----|-------4h5p4---4-4h5p4-----|---------5-5-4------|
A|-----------7---------7---|-(7)---------7---------7---|-(7)-----------5----|
E|-------------------------|---------------------------|--------------------|
|
|  Gtr II
|    PM|       PM|       PM      PM|       PM|       PM      PM|   PM|
e|-------------------------|---------------------------|--------------------|
B|-------------------------|---------------------------|--------------------|
G|-------------------------|---------------------------|--------------------|
D|-5---------5---------5---|--4----------5---------5---|--4------4-----4-4--|
A|-7---------7---------7---|--7----------7---------7---|--5------5-----5-5--|
E|---0-0-------0-0-------0-|-----0-0-------0-0-------0-|-----7-7---7-7------|


   Ebm/B               Em
e|-------------------|---------------------------|----------------------------|
B|-------------------|---------------------------|----------------------------|
G|-------------------|---------------------------|----------------------------|
D|---------5-5-4-4---|-(4)---4h5p4---4-4h5p4-----|-------4h5p4---4-4h5p4------|
A|-(5)---------------|-------------7---------7---|-(7)---------7---------7----|
E|-------------------|---------------------------|----------------------------|
|
|      PM|   PM|           PM|       PM|       PM      PM|       PM|       PM
e|-------------------|---------------------------|----------------------------|
B|-------------------|---------------------------|----------------------------|
G|-------------------|---------------------------|----------------------------|
D|--4------4-----4-4-|--5----------5---------5---|--4----------5---------5----|
A|--6------6-----6-6-|--7----------7---------7---|--7----------7---------7----|
E|-----7-7---7-7-----|-----0-0-------0-0-------0-|-----0-0-------0-0-------0--|


                                           Guitar Solo I
   Bm/D                Ebm/B                Em
   Gtr IV
e|-------------------|-------------------||----------------------|
B|-------------------|-------------------||----------------------|
G|-------------------|-------------------||----------------------|
D|-------------------|-------------------||-4s==5--5s=7-7s9-9s12-|
A|-------------------|-------------------||----------------------|
E|-------------------|-------------------||----------------------|
|
| Gtr III
e|-------------------|-------------------||----------------------|
B|-------------------|-------------------||----------------------|
G|-------------------|-------------------||----------------------|
D|---------5-5-4-----|---------5-5-4-4---||-4p2---(2)------------|
A|-(7)-----------5---|-(5)---------------||----------------------|
E|-------------------|-------------------||----------------------|
|
| Gtr II
|      PM|   PM|           PM|   PM|            PM|     PM|    PM
e|-------------------|-------------------||----------------------|
B|-------------------|-------------------||----------------------|
G|-------------------|-------------------||----------------------|
D|--4------4-----4-4-|--4------4-----4-4-||-5---------5-----5----|
A|--5------5-----5-5-|--6------6-----6-6-||-7---------7-----7----|
E|-----7-7---7-7-----|-----7-7---7-7-----||-----0--0----0-0----0-|


                                  Bm/D
e|------------------------------|---------------------------|
B|------------------------------|---------------------------|
G|---------------------12-14b16-|-(14)---14---12---11-11h12-|
D|-12s14-14-14-(14)-14----------|---------------------------|
A|------------------------------|---------------------------|
E|------------------------------|---------------------------|
|
| Gtr II
|      PM|       PM-|      PM          PM|     PM|
e|------------------------------|---------------------------|
B|------------------------------|---------------------------|
G|------------------------------|---------------------------|
D|--4--------5----------5-------|---4-------4-------4-----4-|
A|--7--------7----------7-------|---5-------5-------5-----5-|
E|-----0--0------0---0-----0----|------7--7----7-7----------|


   Ebm/B                    Em
                                           ~~~~~~~
e|------------------------|-------------------------------|
B|---------------------15-|-15-------------------------12-|
G|-(12)-11----------12----|-14b16---14b16-14-(14)---14----|
D|---------12-------------|-------------------------------|
A|------------------------|-------------------------------|
E|------------------------|-------------------------------|
|
|        PM|    PM|               PM|          PM-|     PM
e|------------------------|-------------------------------|
B|------------------------|-------------------------------|
G|------------------------|-------------------------------|
D|---4--------4------4--4-|--5-------------5---------5----|
A|---6--------6------6--6-|--7-------------7---------7----|
E|-------7--7---7-7-------|-------0--0---------0--0-----0-|


                                ~~~~~
e|----------------------------------------12-|
B|-15b17==15-15r-15b17==15-15r-15b17---15----|
G|-------------------------------------------|
D|-------------------------------------------|
A|-------------------------------------------|
E|-------------------------------------------|
|
|          PM----|              PM---|     PM
e|-------------------------------------------|
B|-------------------------------------------|
G|-------------------------------------------|
D|--4--------------------5--------------5----|
A|--7--------------------7--------------7----|
E|---------0------0-------------0----0-----0-|


   Bm/D                                                 Ebm/B
                                                                         ~~~~~~~~~~~~
e|-15-14-12-15-14-12-15-14-12-15-14-12-15p14p12-15p12-|-17b19---17b19---17b19==(17)r----------||
B|----------------------------------------------------|--------------------------------17b19==||
G|----------------------------------------------------|---------------------------------------||
D|----------------------------------------------------|---------------------------------------||
A|----------------------------------------------------|---------------------------------------||
E|----------------------------------------------------|---------------------------------------||
|
|         PM---|               PM---|                         PM|        PM----|
e|----------------------------------------------------|---------------------------------------||
B|----------------------------------------------------|---------------------------------------||
G|----------------------------------------------------|---------------------------------------||
D|--4-----------------4-----------------------4-----4-|--4------------4--------------4--4-----||
A|--5-----------------5-----------------------5-----5-|--6------------6--------------6--6-----||
E|--------7-----7--------------7-----7----------------|-------7--7-------7-------7------------||


   B5                       E/B         B5                      E/B
                                                             ~~
e|------------------------------------|-----------------------------|
B|-(17)r---17b19---17p15----15-17b19==|=(17)-17r-17p15----15--------|
G|-----------------------14-----------|----------------16----16-----|
D|------------------------------------|-----------------------------|
A|------------------------------------|-----------------------------|
E|------------------------------------|-----------------------------|
|
|                PM------|                              PM---|
e|------------------------------------|-----------------------------|
B|------------------------------------|-----------------------------|
G|---4---4--4----------------1--------|---4---4---4-------------1---|
D|---4---4--4----------------2--------|---4---4---4-------------2---|
A|---2---2--2----2--2-----2--2--0-----|---2---2---2-----2--2--2-2-0-|
E|------------------------------------|-----------------------------|


   B5/A
e|----------------------------------------------|
B|----15-19----15-19----15-19----15-19----15-19-|
G|-16-------16-------16-------16-------16-------|
D|----------------------------------------------|
A|----------------------------------------------|
E|----------------------------------------------|
|
|                     PM---------|
e|----------------------------------------------|
B|----------------------------------------------|
G|----------------------------------------------|
D|--4-----4-----4-----------------------4-------|
A|--0-----0-----0-----0-----0-----0-----0-------|
E|--------------------------------------------0-|


   F#5                     A5
                  ~~~~~~~
e|-17b19---17b19-17-(17)---14-15-|
B|-------------------------------|
G|-------------------------------|
D|-------------------------------|
A|-------------------------------|
E|-------------------------------|
|
|                 PM-----|
e|-------------------------------|
B|-------------------------------|
G|-------------------------------|
D|--------------------------2----|
A|--4----4--4---------------0--0-|
E|--2----2--2-----2---2--2-------|


   B5                      E/B          B5/A
e|-17-15-14-15-14h15-12h14-10h12-8h10-|-7h8-5h7-3h5-2h3-2---3p2---|
B|------------------------------------|-------------------------5-|
G|------------------------------------|---------------------------|
D|------------------------------------|---------------------------|
A|------------------------------------|---------------------------|
E|------------------------------------|---------------------------|
|
|            PM------|                              PM----|
e|------------------------------------|---------------------------|
B|------------------------------------|---------------------------|
G|--4--4--4-----------------1---------|---------------------------|
D|--4--4--4-----------------2---------|-4---4---4-----------4-----|
A|--2--2--2--2--2-----2-----2----0----|-0---0---0---0---0-0-0-----|
E|------------------------------------|-------------------------0-|


   F#5               E5
e|-------------------------|---------------------|----------------------------|
B|-3---3-5b7==(5)-5r-5p3---|-3h5-(5)-3-(3)-2---3-|----------------------------|
G|---4-------------------4-|---------------------|--4h=6p4h6p4h6p4h6p4h6p4----|
D|-------------------------|---------------------|----------------------------|
A|-------------------------|---------------------|----------------------------|
E|-------------------------|---------------------|----------------------------|
|
|        PM-------|
e|-------------------------|---------------------|----------------------------|
B|-------------------------|---------------------|----------------------------|
G|-------------------------|---------------------|----------------------------|
D|-------------------------|-2----------3--2-2---|-(2)------------------------|
A|-4-4-4-------------2---2-|-2----------2--2-2---|-(2)------------------------|
E|-2-2-2-2-----2--2--0---0-|-0-------0--0--0-0---|-(0)------------------------|


                                     H.=H
   B5               E/B              F#5            E5
                     >
e|----------------|----------------|--------------|------|
B|----------------|----------------|--------------|------|
G|-(4)------------|-(4)------------|--------------|------|
D|----------------|----------------|--------------|------|
A|----------------|----------------|--------------|------|
E|----------------|----------------|--------------|------|
|
|                         PM----|        PM----|
e|----------------|----------------|--------------|------|
B|----------------|----------------|--------------|------|
G|--4-------------|----------------|--------------|------|
D|--4----4-4-4-4--|--4----3-3-2-2--|-4---3-3-2-2--|-2----|
A|--2----2-2-2-2--|--0----0-0-0-0--|-4---4-4-4-4--|-2----|
E|----------------|----------------|-2---2-2-2-2--|-0----|


               Bridge
                Slowly Q.=54
                N(A)(F#m((E)       (F#m(A)
               6/8
  Gtr III
e|------------||-------|----------|-------------|
B|------------||-------|----------|-------------|
G|------------||-------|----------|---------<4>-|
D|------------||-------|----------|-------------|
A|------------||-------|----------|-------------|
E|------------||-------|----------|-------------|
|
| Gtr II                Gtr IV
e|------------||-------|----------|-------------|
B|------------||-------|----------|-------------|
G|------------||-------|----------|-------------|
D|-(2)--------||-------|----------|-<4>---------|
A|-(2)--------||-------|------<4>-|-------------|
E|-(0)--------||-------|----------|-------------|


  (Bm)      (E)     (F#m) (A)      (Bm)      (E)  (F#m)     (A)
e|-----------------|--------------|--------------|--------------|
B|-----------<3>---|--------------|--------------|--------------|
G|-----------------|--------------|--------------|--------------|
D|-----------------|--------------|--------------|--------------|
A|-----------------|--------------|--------------|--------------|
E|-----------------|--------------|--------------|--------------|
|
|  <                       <        <              <
e|-----------------|--------------|--------------|--------------|
B|-----------------|--------------|--------------|--------------|
G|-----------------|-------6-(6)--|--------------|-6-(6)-(6)----|
D|-4-(4)-(4)-------|-(4)----------|-4-(4)-(4)----|--------------|
A|-----------------|--------------|--------------|--------------|
E|-----------------|--------------|--------------|--------------|


   (Bm)(E)      (F#m)    (A)      (Bm)    (E)               (F(A)
   Gtr IV
e|----------||------------------|-------------------------|-------|
B|----------||o-----------------|-------------------------|-------|
G|-(6)------||---9b11=====(9)---|--(9)r----9b11r=(9)-6h=9-|-6-----|
D|----------||------------------|-------------------------|-------|
A|----------||o-----------------|-------------------------|-------|
E|----------||------------------|-------------------------|-------|
|
| Gtr III
e|----------||------------------|-------------------------|-------|
B|----------||o-----------------|-------------------------|-------|
G|----------||------------------|-------------------------|-------|
D|----------||---9b11=====(9)---|--(9)r----9b11r=(9)-7h=9-|-7-----|
A|----------||o-----------------|-------------------------|-------|
E|----------||------------------|-------------------------|-------|
|
| Gtr II
e|----------||------------------|-------------------------|-------|
B|----------||o-----------------|-------------------------|-------|
G|----------||------------------|-------------------------|-------|
D|----------||------------------|-------------------------|-------|
A|----------||o-11b12====(11)---|-(11)r---11b12r(11)-9h11-|-9-----|
E|----------||------------------|-------------------------|-------|


    (Bm)  (E)           (F#m)    (A)      (Bm)    (E)               (F#m) (A)
e|------------------||-----------------|-------------------------|-----------|
B|-----------------o||-----------------|-------------------------|-----------|
G|-(6)---(6)-(6)\---||--9b11=====(9)---|--(9)r----9b11r=(9)-6h=9-|-6---------|
D|------------------||-----------------|-------------------------|---7-7-7---|
A|-----------------o||-----------------|-------------------------|-----------|
E|------------------||-----------------|-------------------------|-----------|
|
e|------------------||-----------------|-------------------------|-----------|
B|-----------------o||-----------------|-------------------------|-----------|
G|------------------||-----------------|-------------------------|-----------|
D|-(7)---(7)-(7)\---||--9b11=====(9)---|--(9)r----9b11r=(9)-7h=9-|-7---------|
A|-----------------o||-----------------|-------------------------|---9-9-9---|
E|------------------||-----------------|-------------------------|-----------|
|
e|------------------||-----------------|-------------------------|-----------|
B|-----------------o||-----------------|-------------------------|-----------|
G|------------------||-----------------|-------------------------|-----------|
D|------------------||-----------------|-------------------------|-----------|
A|-(9)---(9)-(9)\--o||-11b12====(11)---|-(11)r---11b12r(11)-9h11-|-9---------|
E|------------------||-----------------|-------------------------|---9-9-9---|


   (Bm)  (E)         (F#m)    (A)      (Bm)    (E)               (F#m) (A)
e|-----------------|-----------------|-------------------------|-------------|
B|-----------------|-----------------|-------------------------|-------------|
G|-----------------|--9b11=====(9)---|--(9)r----9b11r=(9)-6h=9-|-6-----------|
D|-(7)---(7)-(7)\--|-----------------|-------------------------|---7-7-7-6-6-|
A|-----------------|-----------------|-------------------------|-------------|
E|-----------------|-----------------|-------------------------|-------------|
|
e|-----------------|-----------------|-------------------------|-------------|
B|-----------------|-----------------|-------------------------|-------------|
G|-----------------|-----------------|-------------------------|-------------|
D|-----------------|--9b11=====(9)---|--(9)r----9b11r=(9)-7h=9-|-7-----------|
A|-(9)---(9)-(9)\--|-----------------|-------------------------|---9-9-9-7-7-|
E|-----------------|-----------------|-------------------------|-------------|
|
e|-----------------|-----------------|-------------------------|-------------|
B|-----------------|-----------------|-------------------------|-------------|
G|-----------------|-----------------|-------------------------|-------------|
D|-----------------|-----------------|-------------------------|-------------|
A|-----------------|-11b12====(11)---|-(11)r---11b12r(11)-9h11-|-9-----------|
E|-(9)---(9)-(9)\--|-----------------|-------------------------|---9-9-9-7-7-|


   (Bm)    (E)    (F#(A)    (Bm)        (E)        (F#m)  (A)
                                PM--|
e|--------------|---------|----------------------|------------|
B|--------------|---------|----------------------|------------|
G|--------------|---------|----------------------|------------|
D|-7-6-6h7s=9---|---------|---------7-9s11-9-7-9-|-11---7-7---|
A|--------------|-/9------|-(9)-7-9--------------|----9-------|
E|--------------|---------|----------------------|------------|
|
e|--------------|---------|----------------------|------------|
B|--------------|---------|----------------------|------------|
G|--------------|---------|----------------------|------------|
D|--------------|---------|----------------------|------------|
A|-9-7-7h9s11---|---------|----------------------|--------9---|
E|--------------|---------|----------------------|------------|
|
e|--------------|---------|----------------------|------------|
B|--------------|---------|----------------------|------------|
G|--------------|---------|----------------------|------------|
D|--------------|---------|----------------------|------------|
A|--------------|---------|----------------------|------------|
E|-9-7-7h9s12---|---------|----------------------|------------|


   (Bm)  (E)                   (F#m)(A)
e|---------------------------|-----------|
B|---------------------------|-----------|
G|-------------9b11r=(9)b11==|==(9)------|
D|-(7)---(7)-----------------|-----------|
A|---------------------------|-----------|
E|---------------------------|-----------|
|
e|---------------------------|-----------|
B|---------------------------|-----------|
G|---------------------------|-----------|
D|-------------9b11r=(9)b11==|==(9)------|
A|-(9)---(9)-----------------|-----------|
E|---------------------------|-----------|
|
e|---------------------------|-----------|
B|---------------------------|-----------|
G|---------------------------|-----------|
D|---------------------------|-----------|
A|------------11b12r(11)b12==|=(11)------|
E|---------------------------|-----------|


   (Bm)                  (E)              (F#m) (A)
e|--------------------------------------|--------------|
B|--------------------------------------|--------------|
G|--(9)r---9b11r=(9)b11===(9)r=(9)-6h=9-|-6------------|
D|--------------------------------------|---7-7-7-6-6--|
A|--------------------------------------|--------------|
E|--------------------------------------|--------------|
|
e|--------------------------------------|--------------|
B|--------------------------------------|--------------|
G|--------------------------------------|--------------|
D|--(9)r---9b11r=(9)b11===(9)r=(9)-7h=9-|-7------------|
A|--------------------------------------|---9-9-9-7-7--|
E|--------------------------------------|--------------|
|
e|--------------------------------------|--------------|
B|--------------------------------------|--------------|
G|--------------------------------------|--------------|
D|--------------------------------------|--------------|
A|-(11)r--11b12r(11)b12==(11)r(11)-9h11-|-9------------|
E|--------------------------------------|---9-9-9-7-7--|


   (Bm)    (E)        (F#m)     (A)     (Bm)  (E)         (F#m)   (A)
                      Gtr III
e|------------------|-----------------|-----------------|---------------|
B|------------------|-----------------|-----------------|---------------|
G|------------9-9-9-|-9-9--9--9-9-6-6-|-7-7-7---------6-|-6-------------|
D|-7-6-6h7s=9-------|-----------------|-------9-7-6-7---|-7-------------|
A|-9-7-7h9s11-------|-----------------|-----------------|---------------|
E|------------------|-----------------|-----------------|---------------|
|
e|------------------|-----------------|-----------------|---------------|
B|------------------|-----------------|-----------------|---------------|
G|------------------|-----------------|-----------------|---------------|
D|------------------|-----------------|-----------------|---------------|
A|------------------|-----------------|-----------------|-9-------------|
E|-9-7-7h9s12-------|-----------------|-----------------|---------------|
|
| Gtr V
e|------------------|-----------------|-----------------|---------------|
B|------------------|-----------------|-----------------|---------------|
G|------------------|--------11---9---|---9-------9-----|------11---9---|
D|------------------|-----11----7---7-|-9---9-----------|---11----7---7-|
A|------------------|-9---------------|-------7-----7---|-9-------------|
E|------------------|-----------------|-----------------|---------------|


   (Bm)    (E)                 (F#m)       (A)
e|---------------------------|--------------------|
B|---------------------------|--------------------|
G|-(6)------9--9--9--9--9--9-|--9--9--9--9--9-6-6-|
D|-(7)-----11-11-11-11-11-11-|-11-11-11-11-11-7-7-|
A|---------------------------|--------------------|
E|---------------------------|--------------------|
|
e|---------------------------|--------------------|
B|---------------------------|--------------------|
G|---------------------------|--------------------|
D|---------------------------|--------------------|
A|-(9)------9--9--9--9--9--9-|--9--9--9--9--9-----|
E|---------------------------|----------------9-9-|
|
e|---------------------------|--------------------|
B|---------------------------|--------------------|
G|-----9----------9----------|----------11----9---|
D|--9----9-------------------|-------11-----7---7-|
A|----------7-----------7----|--9-----------------|
E|---------------------------|--------------------|


   (Bm)     (E)          (F#m)   (A)
e|---------------------|----------------|
B|---------------------|----------------|
G|--7--7--7----------6-|-6--------------|
D|--9--9--9--9-7-6-7-7-|-7--------------|
A|----------11-9-7-9---|----------------|
E|---------------------|----------------|
|
e|---------------------|----------------|
B|---------------------|----------------|
G|---------------------|----------------|
D|---------------------|-4--------------|
A|-------------------4-|----------------|
E|-10-10-10--7-5-4-5---|----------------|
|
e|---------------------|----------------|
B|---------------------|----------------|
G|-----9---------9-----|------11---9----|
D|--9-----9------------|---11----7---7--|
A|-----------7-----7---|-9--------------|
E|---------------------|----------------|


   (Bm)    (E)           (F#m)   (A)     (Bm)    (E)           (F#m)   (A)
                                                               Gtrs III, IV
e|---------------------|---------------|---------------------|----------------|
B|---------------------|-2-------------|-(2)-----(2)---------|----------------|
G|-(6)-----4b6r==(4)p2-|-2-------------|-(2)-----(2)-------2-|----------------|
D|-(7)-----------------|---------------|---------------2-2---|-4--------------|
A|---------------------|---------------|---------------------|----------------|
E|---------------------|---------------|---------------------|----------------|
|
e|---------------------|---------------|---------------------|----------------|
B|---------------------|---------------|---------------------|----------------|
G|---------------------|---------------|---------------------|----------------|
D|-(4)-----------------|-4-------------|-(4)-----------------|----------------|
A|---------------------|---------------|---------------------|----------------|
E|---------------------|---------------|---------------------|----------------|
|
e|---------------------|---------------|---------------------|----------------|
B|---------------------|---------------|---------------------|----------------|
G|-----9-------9-------|------11---9---|-----9-------9-------|------11---9----|
D|--9----9-------------|---11----7---7-|--9----9-------------|---11----7---7--|
A|---------7------7----|-9-------------|----------7------7---|-9--------------|
E|---------------------|---------------|---------------------|----------------|


   (Bm)    (E)         (F#m)       (A)
                       Gtr III
e|------------------||-----------------------|
B|------------------||-----------------------|
G|------------------||---------6---6---6-9-6-|
D|-(4)--------------||------7----7---7-------|
A|---------/12\-----||-9-9-------------------|
E|---------/12\-----||-----------------------|
|
| Gtr V
e|------------------||-----------------------|
B|------------------||-----------------------|
G|-----9--------9---||--------11-----9-------|
D|--9----9----------||-----11------7-----7---|
A|-----------7----7-||-9---------------------|
E|------------------||-----------------------|


   (Bm)    (E)         (F#m)       (A)
e|-------------------|-----------------------|
B|-------------------|-----------------------|
G|-7-7---------------|---------6---6---6-9-6-|
D|-----9-6-----6-9-6-|-7----7----7---7-------|
A|---------7-7-------|---9-------------------|
E|-------------------|-----------------------|
|
e|-------------------|-----------------------|
B|-------------------|-----------------------|
G|---9-------9-------|--------11-----9-------|
D|-9-----9-----------|-----11------7-----7---|
A|---------7-----7---|-9---------------------|
E|-------------------|-----------------------|


   (Bm)    (E)         (F#m)          (A)           (Bm)       (E)
  Gtr IV
e|-------------------|----------------------------|--------------------------|
B|-------------------|-----------------------10---|--------------------------|
G|-------------------|-----------9----9----9----9-|-11-11--------------------|
D|-------------------|-11----11----11---11--------|-------12-9-------9-12-9--|
A|-------------------|----12----------------------|------------11-11---------|
E|-------------------|----------------------------|--------------------------|
|
| Gtr III
e|-------------------|----------------------------|--------------------------|
B|-------------------|----------------------------|--------------------------|
G|-7-7---------------|-----------6----6----6--9-6-|--7--7--------------------|
D|-----9-6-----6-9-6-|--7-----7-----7----7--------|--------9-6-------6--9-6--|
A|---------7-7-------|-----9----------------------|-------------7--7---------|
E|-------------------|----------------------------|--------------------------|
|
| Gtr V
e|-------------------|----------------------------|--------------------------|
B|-------------------|----------------------------|--------------------------|
G|---9-------9-------|----------11-------9--------|-----9----------9---------|
D|-9-----9-----------|-------11-------7-------7---|--9-------9---------------|
A|---------7-----7---|--9-------------------------|-------------7-------7----|
E|-------------------|----------------------------|--------------------------|


   (F#m)          (A)
e|----------------------------|
B|-----------------------10---|
G|-----------9----9----9----9-|
D|-11----11----11---11--------|
A|----12----------------------|
E|----------------------------|
|
e|----------------------------|
B|----------------------------|
G|-----------6----6----6--9-6-|
D|--7-----7-----7----7--------|
A|-----9----------------------|
E|----------------------------|
|
e|----------------------------|
B|----------------------------|
G|----------11-------9--------|
D|-------11-------7-------7---|
A|--9-------------------------|
E|----------------------------|


   (Bm)                (E)              (F#m)    (A)
e|----------------------------------||--------------------|
B|----------------------------------||o-------10------10s=|
G|-11-11-11-11----------------------||------9----9--9-----|
D|-------------12-9-12-------9-12-9-||--11----------------|
A|---------------------11-11--------||o-------------------|
E|----------------------------------||--------------------|
|
e|----------------------------------||--------------------|
B|----------------------------------||o-------------------|
G|--7--7--7--7----------------------||------6--9-6--9--9s=|
D|--------------9-6--9-------6--9-6-||---7----------------|
A|----------------------7--7--------||o-------------------|
E|----------------------------------||--------------------|
|
e|----------------------------------||--------------------|
B|----------------------------------||o-------------------|
G|-----------9-------------9--------||--------------------|
D|--9-------------9-----------------||--------------------|
A|----------------------7-------7---||o-------------------|
E|----------------------------------||--------------------|


                    Guitar Solo II
   (Bm)    (E)        F#5               A5
                   4x
e|-----------------||-------------------------------------|
B|-7--7-10--------o||-------------------------------------|
G|---------9--9-9--||-------------------------------------|
D|-----------------||-------------11----------11-12-14-11-|
A|----------------o||-12-11-12-14----11-12-14-------------|
E|-----------------||-------------------------------------|
|
|                    Gtr II
|                  4x
e|-----------------||-------------------------------------|
B|----------------o||-------------------------------------|
G|-7--7--9------6--||-------------------------------------|
D|---------6--7----||-11----------------14----------14----|
A|----------------o||--9----------------12----------12----|
E|-----------------||-------------------------------------|


   E5                C#5
e|-------------------------12-14-15s17-|
B|----------------12-14-15-------------|
G|-------11-13-14----------------------|
D|-12-14-------------------------------|
A|-------------------------------------|
E|-------------------------------------|
|
e|-------------------------------------|
B|-------------------------------------|
G|-------------------------------------|
D|--9-----------9-----6-----------6----|
A|--7-----------7-----4-----------4----|
E|-------------------------------------|


   F#5     A5
e|--17--17-17-14-17p14-14h17-14-----|
B|-------------------------------17-|
G|----------------------------------|
D|----------------------------------|
A|----------------------------------|
E|----------------------------------|
|
e|----------------------------------|
B|----------------------------------|
G|----------------------------------|
D|-/11--11-14----------------14\----|
A|--/9---9-12----------------12\----|
E|----------------------------------|


   E5                C#5               F#5          A5
e|-----------------------------------|----------------------|
B|-------------------------17--------|--7-7-9-10-10h12-10-9-|
G|-18p16----------16-16b18----16b18--|----------------------|
D|-------19p16-19--------------------|----------------------|
A|-----------------------------------|----------------------|
E|-----------------------------------|----------------------|
|
e|-----------------------------------|----------------------|
B|-----------------------------------|----------------------|
G|-----------------------------------|----------------------|
D|--9-----------9-----6--------------|-11-----------14------|
A|--7-----------7-----4--------------|--9-----------12------|
E|-----------------------------------|----------------------|


   E5                        C#5
e|-----------------------------------------|
B|----------9h10h12-(12)-/14-12-12-10-9-10-|
G|-6s7h9h11--------------------------------|
D|-----------------------------------------|
A|-----------------------------------------|
E|-----------------------------------------|
|
e|-----------------------------------------|
B|-----------------------------------------|
G|-----------------------------------------|
D|-9--------------------------6------------|
A|-7--------------------------4------------|
E|-----------------------------------------|


   F#5        A5                    E5                 C#5
e|--------------------------------|----------------------------||
B|--9-----------------------------|----------------------------||
G|----9---------------------------|----------------------------||
D|------9-7-9-[9]b11r(9)p7------7-|-9-7-9-7-9b11r(9)p7---------||
A|-------------------------9--9---|--------------------9-(9)---||
E|--------------------------------|----------------------------||
|
e|--------------------------------|----------------------------||
B|--------------------------------|----------------------------||
G|--------------------------------|----------------------------||
D|-11---------14-------------14---|-9-------9----------6-------||
A|--9---------12-------------12---|-7-------7----------4-------||
E|--------------------------------|----------------------------||


 Bass Solo
   E5       G5     D5  B5    E5  G5     D5  B5
e|---------------|---------|----------|---------|
B|---------------|---------|----------|---------|
G|---------------|---------|----------|---------|
D|-7b9r=(7)--5---|---------|----------|---------|
A|---------------|---------|----------|---------|
E|---------------|---------|----------|---------|
|
e|---------------|---------|----------|---------|
B|---------------|---------|----------|---------|
G|---------------|---------|----------|---------|
D|-9--------12---|-7---4---|-9---12---|-7---4---|
A|-7--------10---|-5---2---|-7---10---|-5---2---|
E|---------------|---------|----------|---------|


  E5          G5             D5          B5
e|--------------------------|-------------------------|
B|-3-----3------------------|-1-----1-----------------|
G|---4-----4----4-----4-----|---2-----2---2-------2---|
D|-----5-----5----5-----5---|-----4-----4---4---4---4-|
A|------------------7-----7-|-----------------5-------|
E|--------------------------|-------------------------|
|
e|--------------------------|-------------------------|
B|--------------------------|-------------------------|
G|--------------------------|-------------------------|
D|-9-----------12-----------|-7-----------4-----------|
A|-7-----------10-----------|-5-----------2-----------|
E|--------------------------|-------------------------|


  E5                    G5
e|-----------------------------------------|
B|-----------------------------------------|
G|-11b12-11-9-11b12r(11)--9-11-11p9s7-9-7--|
D|-----------------------------------------|
A|-----------------------------------------|
E|-----------------------------------------|
|
e|-----------------------------------------|
B|-----------------------------------------|
G|-----------------------------------------|
D|--9--------------------12----------------|
A|--7--------------------10----------------|
E|-----------------------------------------|


                                        Tempo I Q=128
   D5              B5            E5      A5  E5     C5
                                2/8     4/4
e|-----------------------------|------||---------------|--------------|
B|-----------------------------|------||---------------|--------------|
G|-9-7h9p7s5-7-5-4-5-4-2-4-5-4-|------||---------------|--------------|
D|-----------------------------|-5-5--||---------------|--------------|
A|-----------------------------|------||---------------|--------------|
E|-----------------------------|------||---------------|--------------|
|
|                                                                 PM|
e|-----------------------------|------||---------------|--------------|
B|-----------------------------|------||---------------|--------------|
G|-----------------------------|------||-2----------5--|-(5)----------|
D|-7---------------4-----------|-9-9--||-2---2-(2)--5--|-(5)----------|
A|-5---------------2-----------|-7-7--||-0---2-(2)--3--|-(3)----------|
E|-----------------------------|------||-----0-(0)-----|----------0-0-|


                          Guitar Solo III
   C5  E5       A5          B5                      A5
  3/4          4/4
e|------------|----------||--------------------------------------|
B|------------|----------||-10b12---10b12---10b12---10b12-10b12==|
G|------------|----------||--------------------------------------|
D|------------|----------||--------------------------------------|
A|------------|----------||--------------------------------------|
E|------------|----------||--------------------------------------|
|
|                                         PM------|
e|------------|----------||--------------------------------------|
B|------------|----------||--------------------------------------|
G|-5----------|-2--------||--4----4--4---------------------------|
D|-5---2-(2)--|-2--------||--4----4--4---------------2-----------|
A|-3---2-(2)--|-0--------||--2----2--2----2--2----2--0-----------|
E|-----0-(0)--|----------||--------------------------------------|


   B5
e|--------------------------------------------|
B|-(10)r-10b12-10b12-10b12-10b12-10b12---10p7-|
G|--------------------------------------------|
D|--------------------------------------------|
A|--------------------------------------------|
E|--------------------------------------------|
|
|                     PM---------|
e|--------------------------------------------|
B|--------------------------------------------|
G|---4----4-----4----------------------4------|
D|---4----4-----4----------------------4------|
A|---2----2-----2-----2-----2-----2----2------|
E|--------------------------------------------|


   B5/A
e|--------------------------------------------------|
B|------7-10p7-10b12-10-10p7------7-10p7-10b12-10-7-|
G|-9b11----------------------9b11-------------------|
D|--------------------------------------------------|
A|--------------------------------------------------|
E|--------------------------------------------------|
|
|                        PM---------|
e|--------------------------------------------------|
B|--------------------------------------------------|
G|--------------------------------------------------|
D|-4-------4----4-------------------------4---------|
A|-0-------0----0--------0---0-------0----0---------|
E|--------------------------------------------------|


   F#5                            A5
e|-10p7---10p7---10p7---10p7---10p7---10p7-|
B|------7------7------7------7------7------|
G|-----------------------------------------|
D|-----------------------------------------|
A|-----------------------------------------|
E|-----------------------------------------|
|
|                 PM---------|
e|-----------------------------------------|
B|-----------------------------------------|
G|-----------------------------------------|
D|--4---4----4--------------------2--------|
A|--4---4----4--------------------0--------|
E|--2---2----2----2------2---2-------------|


   B5                                 B5/A
e|-10b12---10b12-10-(10)-7-10-10b12-|-(10)---10b12-10-(10)-----10p7-|
B|-----------------------7----------|-------------------------------|
G|----------------------------------|-------------------------------|
D|----------------------------------|-------------------------------|
A|----------------------------------|-------------------------------|
E|----------------------------------|-------------------------------|
|
|                 PM-----|                          PM-----|
e|----------------------------------|-------------------------------|
B|----------------------------------|-------------------------------|
G|--4----4--4-----------------------|-------------------------------|
D|--4----4--4---------------2-------|---4--4--4--------------4------|
A|--2----2--2-----2---2--2--0-------|---0--0--0-----0---0--0-0------|
E|----------------------------------|-------------------------------|


   F#5                        A5
e|-10p7-------------------------------|
B|------10p7-10p7---------------------|
G|----------------9p7-9p7-------------|
D|------------------------9p7-9p7-----|
A|--------------------------------9p8-|
E|------------------------------------|
|
|                 PM------|
e|------------------------------------|
B|------------------------------------|
G|------------------------------------|
D|--4----4----4---------------2-------|
A|--4----4----4---------------0-------|
E|--2----2----2---2---2---2-----------|


   E5                           B5                A5
e|----------------------------|------------------------------|
B|----------------------------|---------------------------19-|
G|----------------------------|---------------7--------------|
D|----------------------------|-----------7h9---9-(9)-/21----|
A|-7p5h7-5---7p5-7p5---5-(5)--|-----5-7s9--------------------|
E|---------7---------7--------|-5h7--------------------------|
|
|          PM--------|                    PM----|
e|----------------------------|------------------------------|
B|----------------------------|------------------------------|
G|----------------------------|-4---4---4--------------------|
D|-2---2------------------2---|-4---4---4----------2---------|
A|-2---2------------------2---|-2---2---2-2---2-2--0---------|
E|-0---0---0-0---0---0----0---|------------------------------|


   B5
e|--------------------------------22b24-22p19-------19-22p19-|
B|-------19-22-22b24==(22)r-22p19-------------22b24----------|
G|-21b23-----------------------------------------------------|
D|-----------------------------------------------------------|
A|-----------------------------------------------------------|
E|-----------------------------------------------------------|
|
|                            PM---------|
e|-----------------------------------------------------------|
B|-----------------------------------------------------------|
G|--4--------4----------4----------------------4-------------|
D|--4--------4----------4----------------------4-------------|
A|--2--------2----------2----2-----2-----2-----2-------------|
E|-----------------------------------------------------------|


   B5/A
e|-------19-------19-------19-------19-------19-------19-------19-------19-|
B|-22b24----22b24----22b24----22b24----22b24----22b24----22b24----22b24----|
G|-------------------------------------------------------------------------|
D|-------------------------------------------------------------------------|
A|-------------------------------------------------------------------------|
E|-------------------------------------------------------------------------|
|
|                              PM---------------|
e|-------------------------------------------------------------------------|
B|-------------------------------------------------------------------------|
G|-------------------------------------------------------------------------|
D|--4--------4--------4-----------------------------------4----------------|
A|--0--------0--------0--------0--------0--------0--------0----------------|
E|-------------------------------------------------------------------------|


   F#5                                                 E5
e|------------------------------------------------------------|
B|-------19-22-19----19-22p19------19-22p19------19-22-22b24--|
G|-21b23----------21------------21----------21----------------|
D|------------------------------------------------------------|
A|------------------------------------------------------------|
E|------------------------------------------------------------|
|
|                             PM---------------|
e|------------------------------------------------------------|
B|------------------------------------------------------------|
G|------------------------------------------------------------|
D|--4--------4--------4---------------------------------------|
A|--4--------4--------4---------------------------------2-----|
E|--2--------2--------2-------2--------2-------2--------0-----|


   B5                    A5          B5/A
e|---------------------------------|---------------------------------|
B|---------------------------------|---------------------------------|
G|---[7]-[7]-----[7]-[7]-----[7]b9-|-----[7]-[7]-----[7]-[7]-----7p6-|
D|-----------7h9---------7h9-------|-7h9---------7h9---------7h9-----|
A|---------------------------------|---------------------------------|
E|---------------------------------|---------------------------------|
|
|            PM------|                           PM------|
e|---------------------------------|---------------------------------|
B|---------------------------------|---------------------------------|
G|-4--4---4------------------------|---------------------------------|
D|-4--4---4--------------2---------|-4----4---4--------------4-------|
A|-2--2---2--2----2---2--0---------|-0----0---0--0----0---0--0-------|
E|---------------------------------|---------------------------------|


   F#5                       A5
e|------------------------------------|
B|------------------------------------|
G|-7p6---7p6---7p6---7p6---7p6---7p6S=|
D|-----9-----9-----9-----9-----9------|
A|------------------------------------|
E|------------------------------------|
|
|              PM--------|
e|------------------------------------|
B|------------------------------------|
G|------------------------------------|
D|-4---4---4-----------------2--------|
A|-4---4---4-----------------0--------|
E|-2---2---2---2-----2---2------------|


                            Outro
   E5                         N.C.  A5N.C.    E5N.C.
e|------------------------||----------------------------|
B|------------------------||o---------------------------|
G|-4p2p0-4p2p0-4p2-2------||----------------------------|
D|-------------------2-2--||----------------------------|
A|------------------------||o---------------------------|
E|------------------------||----------------------------|
|
|          PM--------|        PM--|   PM----|   PM----|
e|------------------------||----------------------------|
B|------------------------||o---------------------------|
G|------------------------||--------2---------4---------|
D|-2---2---------------2--||--------2---------2---------|
A|-2---2---------------2--||o-------0---------2---------|
E|-0---0---0---0---0-0-0--||--0-0-0---0-0-0-0---0-0-0-0-|


   C5N.C.
e|-------------------------|
B|-------------------------|
G|-------------------------|
D|-------------------------|
A|-------------------------|
E|-------------------------|
|
|    PM------------------|
e|-------------------------|
B|-------------------------|
G|-5-----------------------|
D|-5-----------------------|
A|-3-----------------------|
E|---0-0-0-0-0-0-0-1-1-1-0-|


         C5N.C.    E5N.C.      A5N.C.
  Gtr II
   PM--|   PM----|   PM----|     PM-----------------------
                                                       6x
e|---------------------------|--------------------------||
B|---------------------------|-------------------------o||
G|-------5---------4---------|-2------------------------||
D|-------5---------2---------|-2------------------------||
A|-------3---------2---------|-0-----------------------o||
E|-0-0-0---0-0-0-0---0-0-0-0-|---0-0-0-0-0-0-0-1-1-1-0--||


         C5N.C.    E5N.C.
  -----|   PM----|   PM----|
e|----------------------------|
B|----------------------------|
G|-------2---------4----------|
D|-------2---------2----------|
A|-------0---------2----------|
E|-0-0-0---0-0-0-0---0-0-0-0--|


   A5N.C.                          A5N.C.    E5N.C.      C5N.C.
     PM--------------------------|   PM----|   PM----|     PM------|
e|-------------------------|---------------------------|-----------------|
B|-------------------------|---------------------------|-----------------|
G|-5-----------------------|-------5---------4---------|-2---------------|
D|-5-----------------------|-------5---------2---------|-2---------------|
A|-3-----------------------|-------3---------2---------|-0---------------|
E|---0-0-0-0-0-0-0-1-1-1-0-|-0-0-0---0-0-0-0---0-0-0-0-|---0-0-0-0-0-----|


********************************
|(n)   Ghost note
|h     Hammer-on 
|p     Pull-off 
|s     Slide
|=     Hold
|b     Bend
|r     Release
|~     Vibrato
|<>    Natural harmonic 
|[]    Artficial harmonic
|<     Accented note
|PM    Palm mute
*******************************
comments
print report bad tab
90 comments total. Showing first comments. show 2 bad comments
+10 reply
Oswald wrote on November 13 2003, 12:00 am

This beginning riff is very cool.....

I want to post or [tab]
guest
You may want to rate the tab now too:
select rating
Please do not post tabs as comments. Select "correction" instead!