Oops, an error
Loading. Please wait.

Orion Bass Tab

version 5
124,094 views 75 this week
15 commentsread comments
1 2 3 4 5
x 35
add to favorites
launch autoscroll
font size
0
reset
guitar tuner
Autoscroll
slow
fast
+/-
esc
set tempo
stop
Help us to improve Ultimate-Guitar.com Take our survey!
×
For the opening section in this song, Cliff Burton used a synth effect on his bass.
that, he uses a little bit of distortion. When he plays the high notes, he uses a heavy
 The slow section in this song is the only part where Cliff does not use distortion. 
the second guitar solo, the light distortion returns. The bass solo uses a heavy fuzz
and also, two bass parts are layered to give the chord effect at the beginning and the end.

I promise that this tab is 100% correct. It's hard to hear the bass completly in this
so to inscribe this tab, I listened to the bass master track of this song. If you want to
it for yourself, follow this link. 



|----------------|----------------|4~--------------|----------------|
|----------------|----------------|----------------|4~--------------| x8
|7~--------------|----------------|5~--------------|6~--------------|
|0~--------------|----------------|----------------|----------------|

|----------------|----------------|----------------|----------------|
|----------------|----------------|----------------|----------------| x3
|7-----7-----7---|7-----7-----7---|5-----5-----5---|----------------|
|--0-0---0-0---0-|--0-0---0-0---0-|--7-7---7-7---7-|7-7-7-7-7-2-2-2-|

|----------------|----------------|----------------|----------------|
|----------------|----------------|----------------|----------------| x2
|7-----7-----7---|7-----7-----7---|5-----5-----5---|----------------|
|--000---0-0---0-|--000---0-0---0-|--777---7-7---7-|7-555-7-2-2-7-5-|

|----------------|----------------|----------------|----------------|
|----------------|----------------|--------------55|5-4---------7/--| x1
|7-----7-----7---|7-----7-----7---|5-----5-----5---|----5-7---------|
|--000---0-0---0-|--000---0-0---0-|--777---7-7-----|--------5-7-----|

|------------14--|------------16--|------------17--|----------------|--------------------|
|14-14-14-14-----|14-14-14-14-----|14-14-14-14-----|14-14-14-14-14--|14-14-15--15-14-14--|
|----------------|----------------|----------------|----------------|--------------------|
|----------------|----------------|----------------|----------------|--------------------|

|------------17--|------------16--|------------14--|----------------|--------------------|
|----------------|----------------|----------------|----------------|--------------------|
|----------------|----------------|----------------|----------------|--------------------|  x4
|----------------|----------------|----------------|----------------|--------------------|

|------------|------------|------------|------------|----------------|
|------------|------------|------------|------------|----------------|
|------------|------------|------------|------------|----------------|
|0-0-0-0-5---|0-0-0-0-7---|0-0-0-0-8---|0-0-0-0-0---|0-0-1---1-0-0---|

|------------|------------|------------|------------|----------------|
|------------|------------|------------|------------|----------------| x4
|------------|------------|------------|------------|----------------|
|0-0-0-0-8---|0-0-0-0-7---|0-0-0-0-5---|0-0-0-0-0---|0-0-1---1-0-0---|

|----------------|----------------|----------------|----------------|
|----------------|----------------|----------------|----------------|
|/7~--/7~---/7~--|/7~--/7~---/7~--|5-----5-----5---|----------------|
|--0-0---0-0---0-|--0-0---0-0---0-|--7-7---7-7---7-|5h7-7-7-7-2-2-2-|

|----------------|----------------|----------------|----------------|
|----------------|----------------|----------------|----------------|
|/7~--/7~---/7~--|/7~--/7~---/7~--|5-----5-----5---|----------------|
|--0-0---0-0---0-|--0-0---0-0---0-|--7-7---7-7---7-|7-7-7-7-7-2-2-2-|

|----------------|----------------|----------------|----------------|
|----------------|----------------|----------------|----------------| x4
|7-----7-----7---|7-----7-----7---|5-----5-----5---|----------------|
|--000---0-0---0-|--000---0-0---0-|--777---7-7---7-|7-777-7-7-2-2-2-|

|----------------|----------------|----------------|----------------|
|----------------|----------------|----------------|----------------|
|----------------|----------------|----------------|----------------|
|7-7---777-7-0-7-|7-7---777-7-0-7-|5-5---555-5-7-5-|2-2-2-222-2-5-0-|

|----------------|----------------|----------------|----------------|
|----------------|----------------|----------------|----------------|
|----------------|----------------|----------------|----------------|
|7-7---777-7-0-7-|5-5---555-5-7-5-|2-2-2-222-2-0-2-|0-0---0-000-0-0~|

|----------------|----------------|----------------|----------------|
|----------------|----------------|----------------|----------------|
|----------------|----------------|----------------|----------------|
|7-----7-7-7-7X--|5------5-5-5-5X-|2------2-2-2-2X-|0~--------------|

*Slow Part*
52 bpm

|----11|--9---|--9---|--9---|
|--11--|7---7-|9---9-|------|
|9-----|------|------|7---7-|
|------|------|------|------|

|----11|--9---|--9---|------|
|--11--|7---7-|9---9-|------|
|9-----|------|------|7~----|
|------|------|------|------|

|----11|--9---|--9---|--9---|
|--11--|7---7-|9---9-|------|
|9-----|------|------|7---7-|
|------|------|------|------|

|----11|--9---|--9--/|9999--|
|--11--|7---7-|9---9-|---117|
|9-----|------|------|------|
|------|------|------|------|

|----11|--9---|--9---|--9---|
|--11--|7---7-|9---9-|---9-7|
|9-----|------|------|7---7-|
|------|------|------|------|

|----11|--9---|--9---|------|
|--11--|7---7-|9---9-|------|
|9-----|------|------|7~----|
|------|------|------|------|

|----11|--9---|--9---|--9---|
|--11--|7---7-|9---9-|---9-7|
|9-----|------|------|7---7-|
|------|------|------|------|

|----11|--9--/|9999999--------|
|--11--|7---7-|-------119-----|
|9-----|------|----------129--|
|------|------|-------------12|

|----11|--9---|--9---|--9---|
|--11--|7---7-|9---9-|---9-7|
|9-----|------|------|7---7-|
|------|------|------|------|

|----11|--9---|--9---|---9------|
|--11--|7---7-|9---9-|/11-119---|
|9-----|------|------|------1211|
|------|------|------|----------|

|----11|--9---|--9---|--9---|
|--11--|7---7-|9---9-|---9-7|
|9-----|------|------|7---7-|
|------|------|------|------|

|----11|--9---|--9---|9---------------|
|--11--|7---7-|9---9-|-12-11-9--------|
|9-----|------|------|---------12-11-9|
|------|------|------|----------------|

|----11|--9---|--9---|--9---|
|--11--|7---7-|9---9-|---9-7|
|9-----|------|------|7---7-|
|------|------|------|------|

|----11|--9---|--9---|------|
|--11--|7---7-|9---9-|97----|
|9-----|------|------|--97-7|
|------|------|------|----9-|

|----11|--9---|--9---|--9---|
|--11--|7---7-|9---9-|---9-7|
|9-----|------|------|7---7-|
|------|------|------|------|

|----11|--9---|--9---|--9---|
|--11--|7---7-|9---9-|---9-7|
|9-----|------|------|7---7-|
|------|------|------|------|

|----11|--9---|--9---|--9---|
|--11--|7---7-|9---9-|---9-9|
|9-----|------|------|7---7-|
|------|------|------|------|

|----11|--9---|--9--/|9999--|
|--11--|7---7-|9---9-|---117|
|9-----|------|------|------|
|------|------|------|------|

|----11|--9---|--9---|--9---|
|--11--|7---7-|9---9-|---9-9|
|9-----|------|------|7---7-|
|------|------|------|------|

|----11|--9--6h9-9-9-6h9-9-9-6h9-6---------|
|--11--|7---7----------------------9-7-----|
|9-----|-------------------------------9-7-|
|------|-----------------------------------|

|----11|--9---|--9---|------|
|--11--|7---7-|9---9-|----67|
|9-----|------|------|7--9--|
|------|------|------|------|

                  __3__
|----11|--9---|11-111111-11-11-11-11-9-----------|
|--11--|7---7-|------------------------11-9----9-|
|9-----|------|-----------------------------12---|
|------|------|----------------------------------|

|-----11--|--9---|--9---|------|
|---11--11|7--767|9--976|--76--| x4
|9-9------|------|------|7---77|
|---------|------|------|------|

|-----6-|6---696|7--7---|-------|
|----7-7|---7---|----96-|----696|
|9--9---|-------|-------|7--7---|
|-------|-------|-------|-------|

|-----6-|6---696|7--7---|-------|
|7---7-7|---7---|----96-|----696|
|---9---|-------|-------|7--7---|
|-------|-------|-------|-------|
          _3_     _3_
|-_3_--6|6666-69|7777---|-------|
|7777-7-|----7--|----969|-_3_696| x2
|----9--|-------|-------|7777---|
|-------|-------|-------|-------|

|-------|-------|-------|-------|
|-------|-------|-------|-------|
|-------|-------|-------|4~---4-|
|2~---2/|5~---5\|0~---0-|-------|

|-------|-------|-------|------|
|-------|-------|-------|------|
|-------|-------|-------|440440|
|2~---2/|5~---5\|0~---0-|------|

|-------|-------|-------|-------|
|-------|-------|-------|-------|
|-------|-------|-------|44444--|
|2--222-|5--555-|0--000-|-------|


[Bass solo]
|16\---12----------__3__-21--21-----14-16-17p16p14h16h17p16p14h16h17p16p14h16h17p16p14h16--|
|17\---14----------191919--17--16-17-------------------------------------------------------|
|------------------------------------------------------------------------------------------|
|------------------------------------------------------------------------------------------|

|--------16h17h19-17-16h17p16--16-17-16-17-16--12------16--12------------------------------|
|17~-------------------------17--------------------14----------14--------------------------|
|------------------------------------------------------------------------------------------|
|------------------------------------------------------------------------------------------|

|--------------------------------------------------------------------|
|/17--14------17--14-------19--16------19--16------16--12------12----|
|---------15----------15/17--------17----------17----------14------14|
|--------------------------------------------------------------------|

|14^16--14-12-14^16-14-12-14-12h14p12/11-12-11h12p11-------------------|
|----------------------------------------------------12-14-12-10-12-10-|
|----------------------------------------------------------------------|
|----------------------------------------------------------------------|

|--------|
|--------|
|12-10---|
|------12|

|-------------------------------------------------------------|
|-------------------------------------------------------------|
|0~----------3~------------------3~----------0~---------------|
|------0~------------------------------0~---------------------|

|----------------|----------------|----------------|----------------|
|----------------|----------------|----------------|----------------|
|2-2---2-2-2-0---|2-2---2-2-2-5-2-|0-0---0-0-0---0-|------------0---|
|--------------0-|----------------|------------0---|2-2---2-2-2---2-|

|----------------|----------------|----------------|----------------|
|----------------|----------------|----------------|------------2---|
|2-2---2-2-2-0---|0-0---0-0-0-2-0-|----------------|----------------|
|--------------0-|----------------|2-2-2-2-2-2-5-2-|0-0---0-0-0---0-|

|----------------|----------------|----------------|----------------|
|----------------|----------------|----------------|----------------|
|2-2---2-2-2-0---|2-2---2-2-2-5-2-|0-0---0-0-0---0-|------------0---|
|--------------0-|----------------|------------0---|2-2---2-2-2---2-|

|----------------|----------------|----------------|----------------|
|----------------|----------------|----------------|------------2---|
|2-2---2-2-2-0---|0-0---0-0-0-2-0-|----------------|----------------|
|--------------0-|----------------|2-2---2-2-2-5-2-|0-0---0-0-0-----|

|------------|------------|------------|------------|----------------|
|------------|------------|------------|------------|----------------|
|------------|------------|------------|------------|----------------|
|0-0-0-0-5---|0-0-0-0-7---|0-0-0-0-8---|0-0-0-0-0---|0-0-1---1-0-0---|

|------------|------------|------------|------------|----------------|
|------------|------------|------------|------------|----------------|
|------------|------------|------------|------------|----------------|
|0-0-0-0-8---|0-0-0-0-7---|0-0-0-0-5---|0-0-0-0-0---|0-0-1---1-0-0---| fade out



Symbol Glossary:
~       hold note
X       mute after playing note
/       slide up
\       slide down
^       bend up
__3__   triplet
Suggest correction
comments
print report bad tab
15 comments total. Showing first comments.
+3 reply
TormentedRx 50 Jun 30, 2009 02:18 PM

Thank you so much for this. This tab. That link. This is perfect. Though at the end there are some fills that are not tabbed (does not matter that much).

Best tab on UG right here!

0 reply
Ezakiel 41 Sep 25, 2009 04:01 AM

Best bass tab of orion !

+2 reply
stupidsmartguy 10 Nov 08, 2009 01:14 PM

most acurate tab ive seen so far but still not quite there

guest
You may want to rate the tab now too:
select rating
Wanna post a correction for this tab? Suggest correction