Oops, an error
Loading. Please wait.

Poor Twisted Me Tab

version 1
version 1

Whole song

Interactive

14,451 views 6 this week
1 commentread comment
1 2 3 4 5
excellent!
x 3
add to favorites
launch autoscroll
font size
0
reset
how to read this tab
guitar tuner
Tab Pro tools
  • play this tab
  • loop segment
  • change instrument
  • show fretboard
  • metronome
×
Best way to learn
"Poor Twisted Me"
Autoscroll
slow
fast
+/-
esc
set tempo
stop
Metallica – Poor Twisted Me

Intro:
Distorted, with delay (timing's off):
|-------------------------------------------------------------------
|------------------------5--0--------------------7b-----------------
|------------------------5-----------------------7b-----------------
|-----7----------x-------5--------------7-------------------------7-
|----------------x--------------------------------------------------
|-/5-------------x------------------/5------------------------/5----


|--------------------------------------------------------------------
|---------------5--0-------------------5-----------------------------
|---------------5----------------------5-----------------------------
|--x---x------x-5-------------7--------5-----7p5-------------7-----7-
|--x---x------x-----------------------------------7--5---------------
|--x---x------x-----------/5-----------------------------/5-----5----


|--------------------------------------------------------------------
|------------------5---------------------------------7---------------
|-----------7------5---------------------------------7---------------
|-x--7---x--7---x--5----------7-----5-----x--7----x--7----7p5--------
|---------------------------------------------------------------7----
|-------------------------/5-----5-----------------------------------


|------------------------------------------------------------------------
|---------------------------------5--0-----------------------------------
|-------------------------7-------5----------------------7-7---5-5---3-2-
|----7-----7-----x--7--x--7----x--5---------7-----7---x--7-7---5-5---3-2-
|------------------------------------------------------------------------
|-5-----5-------------------------------/5-----5-------------------------


|--------------------------------------------------------------------
|--------------------------------------------------------------------
|------------------------------7------x--5---------------------------
|-----7-----7--------7---------7------x--5---------7-----7---------7-
|--------------------------------------------------------------------
|-/5-----5--------5---------5------------------/5-----5---------5----


|--------------------------------------------------------------------
|----------------------------------------------------------------5---
|----7-----x---5h7p5-----------------------------------7----x----5---
|----7-----x----------------7-----7---------7----------7----x----5---
|--------------------------------------------------------------------
|-5---------------------/5-----5---------5----------5----------------


|--------------------------------------------------------------------
|--------------------------------------------------------------------
|----------------------5---5------7----7b-----7------7\--------------
|-----7-----7-----x----5---5------7----7b-----7------7\--------------
|--------------------------------------------------------------------
|-/5-----5-----------------------------------------------------------

Verse 1:

|------------------------------------------------------------------------------
|------------------------------------------------------------------------------
|------------------------------------------------------------------------------
|-----7-----7---------------------------7-----7------------------------7-----7-
|------------------------------------------------------------------------------
|-/5-----5--------------------------/5-----5-----------------------/5-----5----
                 Oh poor twisted me               Oh poor twisted me

|------------------------------------------------------------------------------
|------------------------------------------------------------------------------
|-----------------------------------3--3-----5--5-----3------------------------
|-----------------------5-----5-----3--3-----5--5-----3----------5-----5-------
|------------------------------------------------------------------------------
|---------------5////3-----3----------------------------------3-----3----------
  I feast on sympathy                 I chew on suffer

|------------------------------------------------------------------------------
|------------------------------------------------------------------------------
|-----3--3-----5--5----3-------------------------------------------------------
|-----3--3-----5--5----3----------7-----7--------------------------7-----7-----
|------------------------------------------------------------------------------
|------------------------------5-----5--------------------1/////5-----5--------
    Yeah, I chew on agony                  Swallow whole the pain       

|-------------------------------------------------------------------------------
|-------------------------------------------------------------------------------
|----------5--5--5--5--5--5//7-----7\\\5---------------------/12-12-12-12-12-12-
|----7-----5--5--5--5--5--5//7-----7\\\5---------------------/12-12-12-12-12-12-
|-------------------------------------------------------------------------------
|-5-----------------------------------------------------------------------------
    But oh, its too good to be           that all this misery          just for,

|------------------------------------------------------------------------------
|-----------------------------------------------------------5------------------
|--/9-9-9-9-9-9-9-9-9-9----------------------------7----x---5------------------
|--/9-9-9-9-9-9-9-9-9-9-------7-----7--------7-----7----x---5-------7-----7----
|------------------------------------------------------------------------------
|-------------------------/5-----5--------5-----5---------------/5-----5-------
      oh, poor twisted me

|------------------------------------------------------------------------------
|--5---------5---------5---------5--x--7--5--7---5-----------------------------
|--5---------5---------5---------5--x--7--5--7---5-----------------------------
|------7--5------7--5------7--5--------------------------7-----7--------7------
|------------------------------------------------------------------------------
|----------------------------------------------------/5-----5--------5---------


|------------------------------------------------------------------------------
|--------------5---------------------------------------------------------------
|-----7----x---5-------------------7--7----5--5----3--3------------------------
|-----7----x---5-------7-----7-----7--7----5--5----3--3------------------------
|------------------------------------------------------------------------------
|--5---------------/5-----5----------------------------------------------------

Verse 2:  Use same stuff as above
After verse 2:

|-----------------------------------------------------------------------------------
|----------------8----8--8--8--------8-------------------------5--------5-----------
|----------------7b---7--7--7p5--7b--5----------------x--5-----5--------5--5--------
|------7-----7------------------------------7-----7---------7------5h7--------7--7\-
|-----------------------------------------------------------------------------------
|--/5-----5------------------------------5-----5------------------------------------

Bridge:
|---------------------------------------------------------------------------------
|---------------------------------------------------------------------------------
|--11/12-12-12-12--11/12-12-12-12--11/12-12-12-12--11/12-12-12-12--11/12-12-12-12-
|---------------------------------------------------------------------------------
|--9//10-10-10-10--9//10-10-10-10--9//10-10-10-10--9//10-10-10-10--9//10-10-10-10-
|---------------------------------------------------------------------------------
          To  finaly  reach  the  shore,  survive  the  storm.  Now  you're  bare 

|------------------------------------------------------------------------------
|------------------------------------------------------------------------------
|--11/12-12-12-12--11/12-12-12-12---11--10--9-9-9-9--8/9-9-9-9--8/9-9-9-9------
|------------------------------------------------------------------------------
|--9//10-10-10-10--9//10-10-10-10---9---8---7-7-7-7--6/7-7-7-7--6/7-7-7-7------
|------------------------------------------------------------------------------  
   and cold.  The  sea  was  warm, , , so  warm, you bathe your soul again

Guitar Solo:
|-----------------------------5------------------------------------------------
|--5b-------------------5-----5------5b-------------------/10\\\\--------------
|--5b-------------5-----5------------5b--------------5-------------------------
|--------7--5--7----------------------------7--5--7----------------------------
|------------------------------------------------------------------------------
|------------------------------------------------------------------------------


|----------------------------5-5----5----5--5~------5---5-------------------5--
|-----5-5--------5-5------8b-----8b---8b----8~---8b---8---8b-5----5----5----5--
|--7b-----8~---7-----8~----------------------------------------7b---7b---7b----
|------------------------------------------------------------------------------
|------------------------------------------------------------------------------
|------------------------------------------------------------------------------


|------------------------------------------8\\---------------------------------
|--------------------------------------8---8\\---------------------------------
|--7b---7b---7b---5--------------------8---8\\---------------------------------
|-------------------7-7--7~~------/10------------------------------------------
|------------------------------------------------------------------------------
|------------------------------------------------------------------------------


|------------------------------------------------------------------------------
|-------8--8---8---10p8----10p8----10p8----8--------------------7--5-----------
|-------8--8---8---10p8----10p8----10p8----8--------------5-----7--5-----------
|--/10------------------10------10------10--------7p5--------7-----------------
|------------------------------------------------------7-----------------------
|------------------------------------------------------------------------------


|--------------------------------------------------------------5---5--------------
|------------7--5-----------5----5----5----5----5----5-------5---8---8-5----------
|--------5---7--5-----------5----5----5----5----5----5----7b-------------7-5------
|--7p5-----7---------7p5-----------------------------------------------------5~~--
|------7-------------------7------------------------------------------------------
|---------------------------------------------------------------------------------


Outro:
|-------------------------------------------------------------5--5--5--5----------
|-------------------------------------5-----------------5--5--5--5--5--5----------
|---------------------------7----x----5-----------------5--5--7--7--7--7----------
|------7-----7-------7------7----x----5-------7-----7-----------------------------
|---------------------------------------------------------------------------------
|--/5-----5-------5------5-----------------5-----5--------------------------------


|------------------------------------------------------------------------------------
|-------------------------------------0---------------------7b--7b-------------------
|---------------------------7---x--5--0--------------x-x-x--7b--7b---5---------------
|-----7-----7-------7-------7---x--5--------7-----7--x-x-x-------------7p5-----------
|------------------------------------------------------------------------------------
|--5-----5-------5-------5---------------5-----5-------------------------------------


|------------------------------------------------------------------------------
|------------------------------------------------------------------------------
|------------------------------------------------------------------------------
|-----7-----7------------------------------------------------------------------
|------------------------------------------------------------------------------
|--5-----5---------------------------------------------------------------------


There ya go....sorry, some
of this may be hard to 
understand, but you get the
idea.
====
comments
We did not receive enough feedback on this tab! Please rate:
print report bad tab
1 2 3 4 5
1 comment total.
0 reply
coc_moose wrote on December 28 2013, 08:26 am

good job kick ass song!

I want to post or [tab]
guest
You may want to rate the tab now too:
select rating
Please do not post tabs as comments. Select "correction" instead!