Oops, an error
Loading. Please wait.

Prince Charming Tab

version 1
version 1

Whole song

Interactive

12,448 views 27 this week
no commentswrite comment
1 2 3 4 5
accurate
x 5
add to favorites
launch autoscroll
font size
0
reset
how to read this tab
guitar tuner
Autoscroll
slow
fast
+/-
esc
set tempo
stop
Help us to improve Ultimate-Guitar.com Take our survey!
×
Author
==========================================
"Prince Charming"
written by Hetfield and Ulrich
as performed on ReLoad
tab by Mathew Meldrum; mathewmeldrum@hotmail.com
tune all guitars down 1/2 step

1)
Eb----------------------------------------------
Bb----------------------------------------------
Gb---------------------------------5------------
Db---------2--------5----------5-5-5-------5----
Ab--2/15\2-2--0h5h7---7~~0h5h7-------7-5h7---7~~
Eb--2/15\2-0------------------------------------
intro

2a) James                            ^V^V^V
Eb------------------------------------------
Bb------------------------------------------
Gb------------------------------------------
Db-----------5----------5----------5-7-7-7-5
Ab-----0h5h7------0h5h7------0h5h7----------
Eb--0----------0----------0-----------------
   pm          .          .

2b) Kirk
Eb------------------------------------0------------
Bb------------------------------------0------------
Gb-------------------------------------------------
Db--2---2--7--5--7------2-----------------5-5-5----
Ab--2---2--5--3--5--5-5-0-2----x\x\x------------7-5
Eb--0---0-----------3-3---0----x\x\x---------------
chorus riffs                  pick slide (right before chorus)


3)
Eb------------------------         ------
Bb------------------------         ------
Gb------------------------         ------
Db------------------------ 4 times ------
Ab--7-----5h7-----7-7-5h7-         -5-6-7
Eb--0-0-0-0-0-0-0-0-0-0-0-         -3-4-5
   pm.....................
verse "There's a black cloud up ahead, that is me"


4)
Eb------------------------------------------
Bb------------------------------------------
Gb--5-------5--5-------5--5-------5---------
Db----7-5-7------7-5-7------7-5-7----5-5----
Ab---------------------------------------7-5
Eb------------------------------------------
fill inbetween verses


5)
Eb--------------------------              ------
Bb--------------------------              ------
Gb--------------------------              ------
Db--4-------4p2----4-4-4p2-- 4 times then -4-5-6
Ab--4-----------4----------4              -4-5-6
Eb--2--2-2------------------              -2-3-4
   pm.....                                 .....
solo riff  (Kirk plays with wah and a talk box)

6)
Eb-------------------------------------------------
Bb-------------------------------------------------
Gb-------------------------------------------------
Db-------5---5------5---5------7---7---7----7-7----
Ab--7--7---7---7--7---7---7--9---9---9---9------9-7
Eb-------------------------------------------------
post solo fills

7)
Eb---------------------------------------------
Bb---------------------------------------------
Gb-----2-----2---------------------------------
Db--4--2--4--2------5-----4-----2--------------
Ab--4--0--4--0--0-0---0-0---0-0---0-0-5-0-0-3-2
Eb--2-----2------------------------------------
      pm     .  ...   ...   ...   ...   ...
"Look up to me"
Suggest correction
comments
print report bad tab
guest
You may want to rate the tab now too:
select rating
Please do not post tabs as comments. Select "correction" instead!