Oops, an error
Loading. Please wait.

Purify Tab

version 2
version 2

Whole song

Interactive

11,280 views 12 this week
4 commentsread comments
1 2 3 4 5
excellent!
x 8
add to favorites
launch autoscroll
font size
0
reset
how to read this tab
guitar tuner
Autoscroll
slow
fast
+/-
esc
set tempo
stop
Help us to improve Ultimate-Guitar.com Take our survey!
×
Contributor
"Purify"

by Metallica
written by Hetfield/Ulrich/Hammett/Rock

available on "St. Anger" album

tabbed by Tero Saikkonen from Finland
tsslayer@luukku.com
www.pureheavymetal.cjb.net


Guitars Dropped-C tuning (Strings on D) 
(like all songs in "st. Anger" album, except "Dirty Window"(C# dropped-B)
"Invisible Kid"(A# dropped-G#)
and "The Unnamed Feeling"(C dropped-A#))

6=C 3=F
5=G 2=A
4=C 1=D


INTRO
|-----------------------------| -4-
|-----------------------------|  T
|-----------------------------|  I
|-----------------------------|  M
|-0-0-3--3-3--3--3-3-0-3-5-0--|  E
|-0-0-3--3-3--3--3-3-0-3-5-0--|  S

|-----------------------------| -4-
|-----------------------------|  T
|-----------------------------|  I
|-----------------------------|  M
|-0-0-3--3-3--3--3-3-0-3-5-0--|  E
|-0-0-3--3-3--3--3-3-0-3-5-0--|  S

|-------------------------| -4-
|-------------------------|  T
|-------------------------|  I
|-------------------------|  M
|-0-0---0-0---0-0---0-0---|  E
|-0-0---0-0---0-0---0-0---|  S


|-----------------------------------| -2-
|-----------------------------------|  T
|-----------------------------------|  I
|-----------------------------------|  M
|-5-0-6-0-7--0-----5-0-6-0-7--0-----|  E
|-5-0-6-0-7--0-----5-0-6-0-7--0-----|  S


VERSE ("Tear it down strip the layers off...")
|-----------------------------------| -4-
|-----------------------------------|  T
|-----------------------------------|  I
|-----------------------------------|  M
|-5-0-6-0-7--0-----5-0-6-0-7--0-----|  E
|-5-0-6-0-7--0-----5-0-6-0-7--0-----|  S

CHORUS ("Pure if i... Can´t you help me?...")
|---------------------------------------------------
|---------------------------------------------------
|---------------------------------------------------
|-7--7--7--7--7--7-7-7--7--6--6--6--6--6--6-6-6--6--
|-7--7--7--7--7--7-7-7--7--6--6--6--6--6--6-6-6--6--
|-7--7--7--7--7--7-7-7--7--6--6--6--6--6--6-6-6--6--

---------------------------------------------------|
---------------------------------------------------|
---------------------------------------------------|
-5--5--5--5--5--5-5-5--5--6--6--6--6--6--6-6-6--6--|
-5--5--5--5--5--5-5-5--5--6--6--6--6--6--6-6-6--6--|
-5--5--5--5--5--5-5-5--5--6--6--6--6--6--6-6-6--6--|


|-----------------------------------------|
|-----------------------------------------|
|-----------------------------------------|
|-----------------------------------------|
|-0-1-2-----0-1-2-----0-1-2-----0-1-2-----|
|-0-1-2-----0-1-2-----0-1-2-----0-1-2-----|


|---------------------------------------------------
|---------------------------------------------------
|---------------------------------------------------
|-7--7--7--7--7--7-7-7--7--6--6--6--6--6--6-6-6--6--
|-7--7--7--7--7--7-7-7--7--6--6--6--6--6--6-6-6--6--
|-7--7--7--7--7--7-7-7--7--6--6--6--6--6--6-6-6--6--

---------------------------------------------------|
---------------------------------------------------|
---------------------------------------------------|
-5--5--5--5--5--5-5-5--5--6--6--6--6--6--6-6-6--6--|
-5--5--5--5--5--5-5-5--5--6--6--6--6--6--6-6-6--6--|
-5--5--5--5--5--5-5-5--5--6--6--6--6--6--6-6-6--6--|


|-----------------------------------------| -2-
|-----------------------------------------|  T
|-----------------------------------------|  I
|-----------------------------------------|  M
|-0-1-2-----0-1-2-----0-1-2-----0-1-2-----|  E
|-0-1-2-----0-1-2-----0-1-2-----0-1-2-----|  S

|-----------------------------| -2-
|-----------------------------|  T
|-----------------------------|  I
|-----------------------------|  M
|-0-0-3--3-3--3--3-3-0-3-5-0--|  E
|-0-0-3--3-3--3--3-3-0-3-5-0--|  S

 /only GTR I plays/
|-----------------------------|
|-----------------------------|
|-----------------------------|
|-----------------------------|
|-0-0-3--3-3--3--3-3-0-3-5-0--|
|-0-0-3--3-3--3--3-3-0-3-5-0--|

BAND IN

|-----------------------------| -4-
|-----------------------------|  T
|-----------------------------|  I
|-----------------------------|  M
|-0-0-3--3-3--3--3-3-0-3-5-0--|  E
|-0-0-3--3-3--3--3-3-0-3-5-0--|  S

|-----------------------------------| -2-
|-----------------------------------|  T
|-----------------------------------|  I
|-----------------------------------|  M
|-5-0-6-0-7--0-----5-0-6-0-7--0-----|  E
|-5-0-6-0-7--0-----5-0-6-0-7--0-----|  S


VERSE ("Truth and dare peeling back the skin...")
|-----------------------------------| -4-
|-----------------------------------|  T
|-----------------------------------|  I
|-----------------------------------|  M
|-5-0-6-0-7--0-----5-0-6-0-7--0-----|  E
|-5-0-6-0-7--0-----5-0-6-0-7--0-----|  S


CHORUS ("Pure if i... Can´t you help me?...")
|---------------------------------------------------
|---------------------------------------------------
|---------------------------------------------------
|-7--7--7--7--7--7-7-7--7--6--6--6--6--6--6-6-6--6--
|-7--7--7--7--7--7-7-7--7--6--6--6--6--6--6-6-6--6--
|-7--7--7--7--7--7-7-7--7--6--6--6--6--6--6-6-6--6--

---------------------------------------------------|
---------------------------------------------------|
---------------------------------------------------|
-5--5--5--5--5--5-5-5--5--6--6--6--6--6--6-6-6--6--|
-5--5--5--5--5--5-5-5--5--6--6--6--6--6--6-6-6--6--|
-5--5--5--5--5--5-5-5--5--6--6--6--6--6--6-6-6--6--|


|-----------------------------------------|
|-----------------------------------------|
|-----------------------------------------|
|-----------------------------------------|
|-0-1-2-----0-1-2-----0-1-2-----0-1-2-----|
|-0-1-2-----0-1-2-----0-1-2-----0-1-2-----|


|---------------------------------------------------
|---------------------------------------------------
|---------------------------------------------------
|-7--7--7--7--7--7-7-7--7--6--6--6--6--6--6-6-6--6--
|-7--7--7--7--7--7-7-7--7--6--6--6--6--6--6-6-6--6--
|-7--7--7--7--7--7-7-7--7--6--6--6--6--6--6-6-6--6--

---------------------------------------------------|
---------------------------------------------------|
---------------------------------------------------|
-5--5--5--5--5--5-5-5--5--6--6--6--6--6--6-6-6--6--|
-5--5--5--5--5--5-5-5--5--6--6--6--6--6--6-6-6--6--|
-5--5--5--5--5--5-5-5--5--6--6--6--6--6--6-6-6--6--|


|-----------------------------------------| -2-
|-----------------------------------------|  T
|-----------------------------------------|  I
|-----------------------------------------|  M
|-0-1-2-----0-1-2-----0-1-2-----0-1-2-----|  E
|-0-1-2-----0-1-2-----0-1-2-----0-1-2-----|  S

|-----------------------------| -2-
|-----------------------------|  T
|-----------------------------|  I
|-----------------------------|  M
|-0-0-3--3-3--3--3-3-0-3-5-0--|  E
|-0-0-3--3-3--3--3-3-0-3-5-0--|  S

 /only GTR I plays/
|-----------------------------|
|-----------------------------|
|-----------------------------|
|-----------------------------|
|-0-0-3--3-3--3--3-3-0-3-5-0--|
|-0-0-3--3-3--3--3-3-0-3-5-0--|

BAND IN

|-------------------------| -4-
|-------------------------|  T
|-------------------------|  I
|-------------------------|  M
|-0-0---0-0---0-0---0-0---|  E
|-0-0---0-0---0-0---0-0---|  S


  P.M.___________________________________________________________|
|-----------------------------------------------------------------|
|-----------------------------------------------------------------|
|-----------------------------------------------------------------|
|-----------------------------------------------------------------|
|-----------------------------------------------------------------|
|-0-3-3-0-3-3-0-3-3-0-3-0-3-3-0-3-0-3-3-0-3-3-0-3-3-0-3-0-3-3-0-3-|


|----------------------------------------------| -4-
|----------------------------------------------|  T
|----------------------------------------------|  I
|----------------------------------------------|  M
|----------------------------------------------|  E
|-0-12-12-10-12-12-10-12-12-10-12-10-12-15~----|  S

("I can find the dirt on anything...")
|---------------------------------------------------------------| -2-
|---------------------------------------------------------------|  T
|-------------------(3)-----------------------------------------|  I
|-------7------------3------5---------0-------------------------|  M
|-7--7--7----7-3--3--3----3-5---0--0--0-------------------------|  E
|-7--7--7----7-3--3--3----3-5---0--0--0-----0-12--12-0-12-15~---|  S


|--------------------------------| -4-
|--------------------------------|  T
|--------------------------------|  I
|---------__--------------_------|  M
|-0-3--0-3_5-0---0-3---0-3_5-0---|  E
|-0-3--0-3-5-0---0-3---0-3-5-0---|  S


|---------------------------------------------------------------| -2-
|---------------------------------------------------------------|  T
|---------------------------------------------------------------|  I
|-------7------------3------5---------0-------------------------|  M
|-7--7--7----7-3--3--3----3-5---0--0--0-------------------------|  E
|-7--7--7----7-3--3--3----3-5---0--0--0-----0-12--12-0-12-15~---|  S


|--------------------------------| -10-
|--------------------------------|  T
|--------------------------------|  I
|---------__--------------_------|  M
|-0-3--0-3_5-0---0-3---0-3_5-0---|  E
|-0-3--0-3-5-0---0-3---0-3-5-0---|  S


|----------------------------------------------| -4-
|----------------------------------------------|  T
|----------------------------------------------|  I
|----------------------------------------------|  M
|----------------------------------------------|  E
|-0-12-12-10-12-12-10-12-12-10-12-10-12-15~----|  S

  P.M.___________________________________________________________|
|-----------------------------------------------------------------|
|-----------------------------------------------------------------|
|-----------------------------------------------------------------|
|-----------------------------------------------------------------|
|-----------------------------------------------------------------|
|-0-3-3-0-3-3-0-3-3-0-3-0-3-3-0-3-0-3-3-0-3-3-0-3-3-0-3-0-3-3-0-3-|

CHORUS ("Pure if i... Can´t you help me?...")
|---------------------------------------------------
|---------------------------------------------------
|---------------------------------------------------
|-7--7--7--7--7--7-7-7--7--6--6--6--6--6--6-6-6--6--
|-7--7--7--7--7--7-7-7--7--6--6--6--6--6--6-6-6--6--
|-7--7--7--7--7--7-7-7--7--6--6--6--6--6--6-6-6--6--

---------------------------------------------------|
---------------------------------------------------|
---------------------------------------------------|
-5--5--5--5--5--5-5-5--5--6--6--6--6--6--6-6-6--6--|
-5--5--5--5--5--5-5-5--5--6--6--6--6--6--6-6-6--6--|
-5--5--5--5--5--5-5-5--5--6--6--6--6--6--6-6-6--6--|


|-----------------------------------------|
|-----------------------------------------|
|-----------------------------------------|
|-----------------------------------------|
|-0-1-2-----0-1-2-----0-1-2-----0-1-2-----|
|-0-1-2-----0-1-2-----0-1-2-----0-1-2-----|


|---------------------------------------------------
|---------------------------------------------------
|---------------------------------------------------
|-7--7--7--7--7--7-7-7--7--6--6--6--6--6--6-6-6--6--
|-7--7--7--7--7--7-7-7--7--6--6--6--6--6--6-6-6--6--
|-7--7--7--7--7--7-7-7--7--6--6--6--6--6--6-6-6--6--

---------------------------------------------------|
---------------------------------------------------|
---------------------------------------------------|
-5--5--5--5--5--5-5-5--5--6--6--6--6--6--6-6-6--6--|
-5--5--5--5--5--5-5-5--5--6--6--6--6--6--6-6-6--6--|
-5--5--5--5--5--5-5-5--5--6--6--6--6--6--6-6-6--6--|


|-----------------------------------------| -2-
|-----------------------------------------|  T
|-----------------------------------------|  I
|-----------------------------------------|  M
|-0-1-2-----0-1-2-----0-1-2-----0-1-2-----|  E
|-0-1-2-----0-1-2-----0-1-2-----0-1-2-----|  S

|-----------------------------| -2- |----------|
|-----------------------------|  T  |----------|
|-----------------------------|  I  |----------|
|-----------------------------|  M  |----------|
|-0-0-3--3-3--3--3-3-0-3-5-0--|  E  |-3--------|
|-0-0-3--3-3--3--3-3-0-3-5-0--|  S  |-3--------|


|------------------------|4| |------------------------| |
|------------------------|T|o|------------------------|o|
|------------------------|I| |-5--5--5----7-----------| |
|------------------------|M| |-5--5--5----7-----------| |
|-------3----5--0--0--0--|E|o|-3--3--3----5--0--0--0--|o|
|-0--5----------0--0--0--|S| |---------------0--0--0--| |


|------------------------|4| |------------------------| |
|------------------------|T|o|------------------------|o|
|------------------------|I| |-5--5--5----7-----------| |
|------------------------|M| |-5--5--5----7-----------| |
|-------3----5--0--0--0--|E|o|-3--3--3----5--0--0--0--|o|
|-0--5----------0--0--0--|S| |---------------0--0--0--| |
                                          ____________________________
                                         |1st time    | |2nd time     |
|------------------------|4| |------------------------| |-------------|
|------------------------|T|o|------------------------|o|-------------|
|------------------------|I| |-5--5--5----7-----------| |-7-----------|
|------------------------|M| |-5--5--5----7-----------| |-7-----------|
|-------3----5--0--0--0--|E|o|-3--3--3----5--0--0--0--|o|-5--0--------|
|-0--5----------0--0--0--|S| |---------------0--0--0--| |----0--------|

      THE END             tabbed by:
                  T E R O   S A I K K O N E N
                        contact me to:
              t s s l a y e r @ l u u k k u . c o m
Suggest correction What's this?
You can suggest a correction to this tab. Community and Mods will review your correction and vote to approve or reject it.
comments
print report bad tab
4 comments total. Showing first comments.
0 reply
.:LoCo:. 160 wrote on March 7 2006, 02:08 pm

perfect tab, metallica have gone down hill with all these dirt riffs, i hope there next album is gonna be better

0 reply
royturner23 3,160 wrote on June 28 2007, 10:17 am

ending chords are wrong.. they don't play those notes.. but yeah 5*****

0 reply
frantic_saint 377 wrote on January 29 2009, 10:29 am

the last riffs are wrong the other tab has te right ones but other than that nice.

I want to post or [tab]
guest
You may want to rate the tab now too:
select rating
Please do not post tabs as comments. Select "correction" instead!