Oops, an error
Loading. Please wait.

Remember Tomorrow Tab

version 2
version 2

Whole song

Interactive

3,595 views 18 this week
2 commentsread comments
1 2 3 4 5
3 more votes to show rating
add to favorites
launch autoscroll
font size
0
reset
how to read this tab
guitar tuner
Autoscroll
slow
fast
+/-
esc
set tempo
stop
Help us to improve Ultimate-Guitar.com Take our survey!
×
Remember tomorrow
Metallica
Maiden Heaven

okay...this is my first ever tab so dont have a go at me if its too wrong!
i was gettin annoyed that there aint a tab for metallicas cover so i
thought id give it a go. sorry but there is no way i can tab the solos!
email me at shutthehellup@hotmail.co.uk if you want to correct any mistakes!
----------------------------------------------------------------------------

INTRO

-----------------------------------------------|
-----------7-77-6-4-------------9-99-7-6-4-2~--|
-------------------4~--------------------------| x4
-2-2-2-2-2------------2-2-2-2-2----------------|
-2-2-2-2-2------------2-2-2-2-2----------------|
-0-0-0-0-0------------0-0-0-0-0----------------|
 . . . . .            . . . . .

this next bit im not sure about, my best guess is this:

-----------
-2h3h4p2p0-
-----------|
-----------|
-----------|
-----------|

then theres a bass riff

VERSE

---7-----7-----7-----7-----7-----8-----8-----8-----8-----8------|
-----8-----8-----8-----8-----8-----9-----9-----9-----9-----9----|
-9-----9-----9-----9-----9-----9-----10----10----10----10----10-| x4
----------------------------------------------------------------|
----------------------------------------------------------------|
----------------------------------------------------------------|

CHORUS

---------------------------------------------------|
---------------------------------------------------|
---------------------------------------------------| x3
-----------4---4-------------------5---5-----------|
--2--------2---2--5--4----5--------3---3--3-2------|
--0---0-0---------3--2----3---3-3-------------3-2--|

then on the fouth time you play:

---------------------------------------------------|
---------------------------------------------------|
---------------------------------------------------|
-----------4---4-------------------5---------------|
--2--------2---2--5--4----5--------3---------------|
--0---0-0---------3--2----3---3-3------------------|

and thats it! now could some one please tab the solos cos i wanna
play them too but i suck at tabbing!
Suggest correction
Give kudos to tab author, rate the tab!
1 2 3 4 5
comments
print report bad tab
2 comments total.
+1 reply
basebalfan18 30 Dec 04, 2008 11:05 PM

i'm happy that someone's atleast attempted to do this damn song!! jeez ive been waitin forever! thanks a ton, hopefully it'll jumpstart a bunch of people

+1 reply
shutthehellup:D 30 Dec 14, 2008 10:16 AM

yeah...thanks, at least i tryed!!

guest
You may want to rate the tab now too:
select rating
Wanna post a correction for this tab? Suggest correction