Oops, an error
Loading. Please wait.

Ride The Lightning Tab

version 1
version 1
66,207 views 75 this week
19 commentsread comments
1 2 3 4 5
accurate
x 25
add to favorites
launch autoscroll
font size
0
reset
how to read this tab
guitar tuner
Tab Pro tools
  • play this tab
  • loop segment
  • change instrument
  • show fretboard
  • metronome
Autoscroll
slow
fast
+/-
esc
set tempo
stop
Contributor
Metallica- Ride the Lightning Solo off the album Ride the Lightning
--------------------------------------------------------------|
--------------------------------------------------------------|
12p9p5-12p5h9-12p5h9-12p9p5-12p5h9-12p9p5-12p5h9-12p9p5-9p5h9-|
--------------------------------------------------------------|
--------------------------------------------------------------|
--------------------------------------------------------------|x2

-------------------------------------------------------------|
-------------------------------------------------------------|
--14--14b(16)-14b(16)-14---12--11--11--12-11h12h11-----------|
---------------------------------------------------14----12--|
-------------------------------------------------------------|
-------------------------------------------------------------|

-------------------------------------------------------------|
---------------------5--5/-7--7--7-/8--8--8/-10-10-10-10\8---|
-------------------------------------------------------------|
------12--12--14-x\--2--2/-4--4--4-/5--5--5/-7--7--7--7-\5---|
--14-------------x\------------------------------------------|
-----------------x\------------------------------------------|

-------------------------------------------------------------|
-8-/10-10/-12---12-\10--10-/12--12/-13--13/--15--15/-17--17--|
-------------------------------------------------------------|
-5-/7---7/--9---9--\7---7--/9---9/--10--10/--12--12/-14--14--|
-------------------------------------------------------------|
-------------------------------------------------------------|

-------------------------------------------------------------|
-------------------------------------------------------------|
--------------19--h23p21-19--21--19-----19-----19--19-21-h23-|
-17--19--21--------------------------21-----21---------------|
-------------------------------------------------------------|
-------------------------------------------------------------|

-19--------------24--22--19--19--22--19-19----19-----------14--|
-----24-p22--19----------------------------22----24-24\17------|
---------------------------------------------------------------|
---------------------------------------------------------------|
---------------------------------------------------------------|
---------------------------------------------------------------|

-17-14----14-17\14----14-------------17-14-------------------|
-------17----------17-------14-17-14-------17-14---14-17-14--|
-------------------------16----------------------18----------|
-------------------------------------------------------------|
-------------------------------------------------------------|
-------------------------------------------------------------|

--------------------------------------------------------------|
--------------------------------------------------------------|
-16-14----14-16-14--------------------------------------------|
-------16----------16-14----14-16-14--------------------------|
-------------------------16----------16-14-14-12-14-12----12--|
-------------------------------------------------------14-----|

-------------------------------------------------------------|
--------------------------------------14-19-17b-17b-17b-17b--|
----------14-16-16-14----14-16-14--16------------------------|
----14-16-------------16-------------------------------------|
-16----------------------------------------------------------|
-------------------------------------------------------------|

----17b-17b-17b-17-14-17-14-14-14-17-14----------------------|
-14-------------------------------------17-14-----14-17-14---|
----------------------------------------------18-------------|
-------------------------------------------------------------|
-------------------------------------------------------------|
-------------------------------------------------------------|

---------------------------14-17-14-14-14-14-14-17-14-19-14--|
------------------------17-----------------------------------|
-16-14----14-16b-14/-----------------------------------------|
-------16-----------16\--------------------------------------|
-------------------------------------------------------------|
-------------------------------------------------------------|

-17-14----14-17-17-19-14-17-14----14-14-17-17-19-14-17-14--14-|
-------17----------------------17-------------------------17--|
--------------------------------------------------------------|
--------------------------------------------------------------|
--------------------------------------------------------------|
--------------------------------------------------------------|

-19-14-17-14----17---------------------------------------------|
-------------------17-14-17-14----14---------------------------|
-------------18----------------16----16-14----14-16------------|
-------------------------------------------16-------14--14-16--|
---------------------------------------------------------------|
---------------------------------------------------------------|

----------------------------------14-15p14-------------------|
-------14-15-14h15p14----14-15-17----------17-15-14-15-17----|
-14-16----------------16-------------------------------------|
-------------------------------------------------------------|
-------------------------------------------------------------|
-------------------------------------------------------------|

-14-15-17-15-17-19-17-19-12-19-20-22-22b-22b-22b-17-19-21----|
-------------------------------------------------------------|
-------------------------------------------------------------|
-------------------------------------------------------------|
-------------------------------------------------------------|
-------------------------------------------------------------|

-21-19-17-15-19-17-15-14-17-15-12-15-12-13-14-17-15-12-15-12-|
-------------------------------------------------------------|
-------------------------------------------------------------|
-------------------------------------------------------------|
-------------------------------------------------------------|
-------------------------------------------------------------|

----14-12----14-12----------12-------------------------------|
-15-------13-------13-12-13----15-13-12----------------------|
-------------------------------------------10----------------|
-------------------------------------------10----------------|
--------------------------------------------8----------------|
-------------------------------------------------------------|
                             trem bar down x    up x

Double Time
---------------------------12-12-15-12-14-12----12------------|
--15b-15b-15b-15b-15b-15b--------------------15----15-14-12---|
--------------------------------------------------------------|
--------------------------------------------------------------|
--------------------------------------------------------------|
--------------------------------------------------------------|

--------------------------------------12-16-14-12---------------|
-14-12--------------------------------------------16-14-12------|
-------14-12----12-14-12-14b-14b-14b----------------------------|
-------------14-------------------------------------------------|
----------------------------------------------------------------|
----------------------------------------------------------------|

-16-14-12----------17-16-14----------17-16-14----------------|
----------16-14-12----------17-16-14----------17-16-14-------|
-------------------------------------------------------------|
-------------------------------------------------------------|
-------------------------------------------------------------|
-------------------------------------------------------------|

-19-17-16----------21-19-17----------22-21-19-----------22b--|
----------19-17-16----------21-19-17----------22-21-19--22b--|
-------------------------------------------------------------|
-------------------------------------------------------------|
-------------------------------------------------------------|
-------------------------------------------------------------|

with harmonizer
----15-19-15--(x4)----14-17-14-(x4)----13-17-13-(x4)---12-16-1-----|2(x4)
-17----------------15---------------15--------------12-------------|
-------------------------------------------------------------------|
-------------------------------------------------------------------|
-------------------------------------------------------------------|
-------------------------------------------------------------------|(rpt x2)

----10-13-8----8-13-8----10-15-10-------13-18-13-------------|
-12---------10--------10----------12-15----------------------|
-------------------------------------------------------------|
-------------------------------------------------------------|
-------------------------------------------------------------|
-------------------------------------------------------------|

-20-15-12-15----15-19-19-15----15-18-15-18----15-17-15-------|
-------------16-------------17-------------17----------17----|
-------------------------------------------------------------|
-------------------------------------------------------------|
-------------------------------------------------------------|
-------------------------------------------------------------|

-15-17-15----15-17-17\-13-8----8-13-8-13-8----8-13-8-13-8----|
----------17-------17\------10-------------10-------------10-|
-------------------------------------------------------------|
-------------------------------------------------------------|
-------------------------------------------------------------|
-------------------------------------------------------------|

-15-10----10-15-10-15-10----12-10-13----13-18-13----13-------|
-------12----------------12----------15----------15-13-------|
-------------------------------------------------------------|
-------------------------------------------------------------|
-------------------------------------------------------------|
-------------------------------------------------------------|

This one is long and really hard but keep on pickin
comments
print report bad tab
19 comments total. Showing first comments.
-1 reply
slipinkorn wrote on June 26 2005, 12:00 am

most people dont have 23 frets so how are you supposed to do the solo

0 reply
nflfan04 wrote on September 19 2005, 12:00 am

buy a 24 fret guitar, duh. mine is 24,

a lot of guitars are only 22 frets, and when i saw songs needed 24, i bought a 24 fret guitar.

0 reply
tha_psycho wrote on December 2 2005, 12:04 pm

damnit i cant do the thing when u gotta do harmonizer oor something thats all i need to know then i can play the whole solo! can someone explain to me what it is?

I want to post or [tab]
guest
You may want to rate the tab now too:
select rating
Please do not post tabs as comments. Select "correction" instead!