Oops, an error
Loading. Please wait.

Ride The Lightning Tab

version 1
version 1

Solo

Whole song

71,453 views 81 this week
19 commentsread comments
1 2 3 4 5
x 25
add to favorites
launch autoscroll
font size
0
reset
how to read this tab
guitar tuner
backing track
0:00
0:00
×
Best way to learn
"Ride The Lightning"
Autoscroll
slow
fast
+/-
esc
set tempo
stop
Author
[Solo]
e|--------------------------------------------------------------|
B|--------------------------------------------------------------|
G|12p9p5-12p5h9-12p5h9-12p9p5-12p5h9-12p9p5-12p5h9-12p9p5-9p5h9-|
D|--------------------------------------------------------------|
A|--------------------------------------------------------------|
E|--------------------------------------------------------------|(x2)

e|-------------------------------------------------------------|
B|-------------------------------------------------------------|
G|--14--14b(16)-14b(16)-14---12--11--11--12-11h12h11-----------|
D|---------------------------------------------------14----12--|
A|-------------------------------------------------------------|
E|-------------------------------------------------------------|

e|-------------------------------------------------------------|
B|---------------------5--5/-7--7--7-/8--8--8/-10-10-10-10\8---|
G|-------------------------------------------------------------|
D|------12--12--14-x\--2--2/-4--4--4-/5--5--5/-7--7--7--7-\5---|
A|--14-------------x\------------------------------------------|
E|-----------------x\------------------------------------------|

e|-------------------------------------------------------------|
B|-8-/10-10/-12---12-\10--10-/12--12/-13--13/--15--15/-17--17--|
G|-------------------------------------------------------------|
D|-5-/7---7/--9---9--\7---7--/9---9/--10--10/--12--12/-14--14--|
A|-------------------------------------------------------------|
E|-------------------------------------------------------------|

e|-------------------------------------------------------------|
B|-------------------------------------------------------------|
G|--------------19--h23p21-19--21--19-----19-----19--19-21-h23-|
D|-17--19--21--------------------------21-----21---------------|
A|-------------------------------------------------------------|
E|-------------------------------------------------------------|

e|-19--------------24--22--19--19--22--19-19----19-----------14--|
B|-----24-p22--19----------------------------22----24-24\17------|
G|---------------------------------------------------------------|
D|---------------------------------------------------------------|
A|---------------------------------------------------------------|
E|---------------------------------------------------------------|

e|-17-14----14-17\14----14-------------17-14-------------------|
B|-------17----------17-------14-17-14-------17-14---14-17-14--|
G|-------------------------16----------------------18----------|
D|-------------------------------------------------------------|
A|-------------------------------------------------------------|
E|-------------------------------------------------------------|

e|--------------------------------------------------------------|
B|--------------------------------------------------------------|
G|-16-14----14-16-14--------------------------------------------|
D|-------16----------16-14----14-16-14--------------------------|
A|-------------------------16----------16-14-14-12-14-12----12--|
E|-------------------------------------------------------14-----|

e|-------------------------------------------------------------|
B|--------------------------------------14-19-17b-17b-17b-17b--|
G|----------14-16-16-14----14-16-14--16------------------------|
D|----14-16-------------16-------------------------------------|
A|-16----------------------------------------------------------|
E|-------------------------------------------------------------|

e|----17b-17b-17b-17-14-17-14-14-14-17-14----------------------|
B|-14-------------------------------------17-14-----14-17-14---|
G|----------------------------------------------18-------------|
D|-------------------------------------------------------------|
A|-------------------------------------------------------------|
E|-------------------------------------------------------------|

e|---------------------------14-17-14-14-14-14-14-17-14-19-14--|
B|------------------------17-----------------------------------|
G|-16-14----14-16b-14/-----------------------------------------|
D|-------16-----------16\--------------------------------------|
A|-------------------------------------------------------------|
E|-------------------------------------------------------------|

e|-17-14----14-17-17-19-14-17-14----14-14-17-17-19-14-17-14--14-|
B|-------17----------------------17-------------------------17--|
G|--------------------------------------------------------------|
D|--------------------------------------------------------------|
A|--------------------------------------------------------------|
E|--------------------------------------------------------------|

e|-19-14-17-14----17---------------------------------------------|
B|-------------------17-14-17-14----14---------------------------|
G|-------------18----------------16----16-14----14-16------------|
D|-------------------------------------------16-------14--14-16--|
A|---------------------------------------------------------------|
E|---------------------------------------------------------------|

e|----------------------------------14-15p14-------------------|
B|-------14-15-14h15p14----14-15-17----------17-15-14-15-17----|
G|-14-16----------------16-------------------------------------|
D|-------------------------------------------------------------|
A|-------------------------------------------------------------|
E|-------------------------------------------------------------|

e|-14-15-17-15-17-19-17-19-12-19-20-22-22b-22b-22b-17-19-21----|
B|-------------------------------------------------------------|
G|-------------------------------------------------------------|
D|-------------------------------------------------------------|
A|-------------------------------------------------------------|
E|-------------------------------------------------------------|

e|-21-19-17-15-19-17-15-14-17-15-12-15-12-13-14-17-15-12-15-12-|
B|-------------------------------------------------------------|
G|-------------------------------------------------------------|
D|-------------------------------------------------------------|
A|-------------------------------------------------------------|
E|-------------------------------------------------------------|

e|----14-12----14-12----------12-------------------------------|
B|-15-------13-------13-12-13----15-13-12----------------------|
G|-------------------------------------------10----------------|
D|-------------------------------------------10----------------|
A|--------------------------------------------8----------------|
E|-------------------------------------------------------------|
                             trem bar down x    up x

(Double Time)
e|---------------------------12-12-15-12-14-12----12------------|
B|--15b-15b-15b-15b-15b-15b--------------------15----15-14-12---|
G|--------------------------------------------------------------|
D|--------------------------------------------------------------|
A|--------------------------------------------------------------|
E|--------------------------------------------------------------|

e|--------------------------------------12-16-14-12---------------|
B|-14-12--------------------------------------------16-14-12------|
G|-------14-12----12-14-12-14b-14b-14b----------------------------|
D|-------------14-------------------------------------------------|
A|----------------------------------------------------------------|
E|----------------------------------------------------------------|

e|-16-14-12----------17-16-14----------17-16-14----------------|
B|----------16-14-12----------17-16-14----------17-16-14-------|
G|-------------------------------------------------------------|
D|-------------------------------------------------------------|
A|-------------------------------------------------------------|
E|-------------------------------------------------------------|

e|-19-17-16----------21-19-17----------22-21-19-----------22b--|
B|----------19-17-16----------21-19-17----------22-21-19--22b--|
G|-------------------------------------------------------------|
D|-------------------------------------------------------------|
A|-------------------------------------------------------------|
E|-------------------------------------------------------------|

(with harmonizer)
e|----15-19-15--(x4)----14-17-14-(x4)----13-17-13-(x4)---12-16-1-----| (x4)
B|-17----------------15---------------15--------------12-------------|
G|-------------------------------------------------------------------|
D|-------------------------------------------------------------------|
A|-------------------------------------------------------------------|
E|-------------------------------------------------------------------|(x2)

e|----10-13-8----8-13-8----10-15-10-------13-18-13-------------|
B|-12---------10--------10----------12-15----------------------|
G|-------------------------------------------------------------|
D|-------------------------------------------------------------|
A|-------------------------------------------------------------|
E|-------------------------------------------------------------|

e|-20-15-12-15----15-19-19-15----15-18-15-18----15-17-15-------|
B|-------------16-------------17-------------17----------17----|
G|-------------------------------------------------------------|
D|-------------------------------------------------------------|
A|-------------------------------------------------------------|
E|-------------------------------------------------------------|

e|-15-17-15----15-17-17\-13-8----8-13-8-13-8----8-13-8-13-8----|
B|----------17-------17\------10-------------10-------------10-|
G|-------------------------------------------------------------|
D|-------------------------------------------------------------|
A|-------------------------------------------------------------|
E|-------------------------------------------------------------|

e|-15-10----10-15-10-15-10----12-10-13----13-18-13----13-------|
B|-------12----------------12----------15----------15-13-------|
G|-------------------------------------------------------------|
D|-------------------------------------------------------------|
A|-------------------------------------------------------------|
E|-------------------------------------------------------------|


************************************

| h  Hammer-on
| p  Pull-off
| /  Slide up
| \  Slide down
| b  Bend

************************************
Suggest correction
comments
print report bad tab
19 comments total. Showing first comments.
-1 reply
slipinkorn 70 Jun 25, 2005 08:00 PM

most people dont have 23 frets so how are you supposed to do the solo

0 reply
nflfan04 10 Sep 18, 2005 08:00 PM

buy a 24 fret guitar, duh. mine is 24,

a lot of guitars are only 22 frets, and when i saw songs needed 24, i bought a 24 fret guitar.

0 reply
tha_psycho 10 Dec 02, 2005 07:04 AM

damnit i cant do the thing when u gotta do harmonizer oor something thats all i need to know then i can play the whole solo! can someone explain to me what it is?

guest
You may want to rate the tab now too:
select rating
Wanna post a correction for this tab? Suggest correction