Oops, an error
Loading. Please wait.

Ride The Lightning Tab

version 6
189,401 views 297 this week
19 commentsread comments
1 2 3 4 5
excellent!
x 69
add to favorites
launch autoscroll
font size
0
reset
how to read this tab
guitar tuner
Autoscroll
slow
fast
+/-
esc
set tempo
stop
Help us to improve Ultimate-Guitar.com Take our survey!
×
Author
Difficulty
advanced
Ride The Lightning by
Metallica


[Intro]

e|----------------------------------------------|
B|-----12-13~--------12~------------------------|
G|---------------14------------11~----12--------|
D|--------------------------14-----------14~----| x 4 
A|----------------------------------------------|
E|--x---------x----------x---------x------------|

Rhythm
e|----------------------------------------------|
B|----------------------------------------------|
G|-----11-12~-----------------------------------|
D|---------------12-14~-------------------------| x 4 
A|-------------------------12-14~---------------|
E|--x---------x---------x---------x--10-12~-----|

After 4th time
e|-------------|
B|-------------|
G|-------------|
D|-------------| x 1 
A|--7\---------|
E|--7\---------|

Rhythm
e|-------------|
B|-------------|
G|-------------|
D|-------------| x 1 
A|-------------|
E|--12\--------|

Lead and Rhythm
e|-----------------------------|
B|-----------------------------|
G|-----------------------------|
D|-----------------------------| x 12
A|--7/8-------7/8--------------|
E|--5/6--0-0--5/6--0-0-0-0-----|

Lead and Rhythm
e|-----------------------------|
B|-----------------------------|
G|-----------------------------|
D|--------2---5----------------| x 4 
A|--4-2-4-0-4-3----------------|
E|--2-0-2---2------------------|

Lead and Rhythm
e|----------------|
B|----------------|
G|----------------|
D|-----5-4--------| x 1 
A|--4--3-2--------|
E|--2-------------|


Lead and Rhythm
e|-----------------------------|
B|-----------------------------|
G|-----------------------------|
D|-----------------------------| x 3 
A|--7/8-------7/8--------------|
E|--5/6--0-0--5/6--0-0-0-0-----|

e|-----------------------------|
B|-----------------------------|
G|-----------------------------|
D|-----------------------------| x 1 
A|--7/8-------7/8-------10-9---|
E|--5/6--0-0--5/6--0-0---8-7---|


Lead and Rhythm
e|-----------------------------|
B|-----------------------------|
G|-----------------------------|
D|-----------------------------| x 3 
A|--7/8-------7/8--------------|
E|--5/6--0-0--5/6--0-0-0-0-----|

e|-----------------------------|
B|-----------------------------|
G|-----------------------------|
D|-----------------------------| x 1 
A|--7/8-------7/8-------10-9---|
E|--5/6--0-0--5/6--0-0---8-7---|


Lead and Rhythm
e|---------------------------|
B|---------------------------|
G|---------------------------|
D|---------------------------| x 4
A|--2h4------2h4-------------|
E|--2----2-2-2----2-2-2-2----|


Lead and Rhythm
e|--------------------------------|
B|--------------------------------|
G|--------------------------------|
D|--6-----5-4-----6---22222222----| x 1
A|--4-----3-2-----4---00000000----|
E|-----x-------x------------------|

e|-------------------------------------|
B|-------------------------------------|
G|-------------------------------------|
D|--6-----5-4-----6---22222222---------| x 1
A|--4-----3-2-----4---00000000--2-2----|
E|-----x-------x-----------------------|


Lead and Rhythm
e|---------------------------|
B|---------------------------|
G|---------------------------|
D|---------------------------| x 2
A|--2h4------2h4-------------|
E|--2----2-2-2----2-2-2-2----|


Lead and Rhythm
e|--------------------------------|
B|--------------------------------|
G|--------------------------------|
D|--6-----5-4-----6---22222222----| x 2
A|--4-----3-2-----4---00000000----|
E|-----x-------x------------------|


Lead and Rhythm
e|-----------------------------|
B|-----------------------------|
G|-----------------------------|
D|--------2---5----------------| x 4
A|--4-2-4-0-4-3----------------|
E|--2-0-2---2------------------|


Lead and Rhythm
e|-----------------------------|
B|-----------------------------|
G|-----------------------------|
D|-----------------------------| x 3
A|--7/8-------7/8--------------|
E|--5/6--0-0--5/6--0-0-0-0-----|

e|-----------------------------|
B|-----------------------------|
G|-----------------------------|
D|-----------------------------| x 1
A|--7/8-------7/8-------10-9---|
E|--5/6--0-0--5/6--0-0---8-7---|


Lead and Rhythm
e|-----------------------------|
B|-----------------------------|
G|-----------------------------|
D|-----------------------------| x 3
A|--7/8-------7/8--------------|
E|--5/6--0-0--5/6--0-0-0-0-----|

e|-----------------------------|
B|-----------------------------|
G|-----------------------------|
D|-----------------------------| x 1
A|--7/8-------7/8-------10-9---|
E|--5/6--0-0--5/6--0-0---8-7---|


Lead and Rhythm
e|---------------------------|
B|---------------------------|
G|---------------------------|
D|---------------------------| x 4
A|--2h4------2h4-------------|
E|--2----2-2-2----2-2-2-2----|


Lead and Rhythm
e|--------------------------------|
B|--------------------------------|
G|--------------------------------|
D|--6-----5-4-----6---22222222----| x 1
A|--4-----3-2-----4---00000000----|
E|-----x-------x------------------|

e|-------------------------------------|
B|-------------------------------------|
G|-------------------------------------|
D|--6-----5-4-----6---22222222---------| x 1
A|--4-----3-2-----4---00000000--2-2----|
E|-----x-------x-----------------------|


Lead and Rhythm
e|---------------------------|
B|---------------------------|
G|---------------------------|
D|---------------------------| x 2
A|--2h4------2h4-------------|
E|--2----2-2-2----2-2-2-2----|


Lead and Rhythm
e|--------------------------------|
B|--------------------------------|
G|--------------------------------|
D|--6-----5-4-----6---22222222----| x 2
A|--4-----3-2-----4---00000000----|
E|-----x-------x------------------|


Lead and Rhythm
e|---------------------------------------------|
B|---------------------------------------------|
G|---------------------------------------------|
D|--9-8-7----6----5-----------5--------5-------| x 4
A|--7-6-5----4----3-----------5--------5-------|
E|---------6----5----4---0000---000000---00----|


Lead and Rhythm
e|------------------------------------------------------|
B|------------------------------------------------------|
G|------------------------------------------------------|
D|---------10------------10-----------9--------9--------|
A|---------10------------10-----------9--------9--------|
E|--8-8-8-8-8-8-8-8-8-8-8-8-8-8--7777-7-777777-7-77-----|

e|------------------------------------------------------|
B|------------------------------------------------------|
G|------------------------------------------------------|
D|-------8--------8----------7--------7-----------------|
A|-------8--------8----------7--------7-----------------|
E|--6666-6-666666-6-66--5555-5-555555-5-00--------------|

e|---------------------------------------------|
B|---------------------------------------------|
G|---------------------------------------------|
D|-------3--------3----------5----------8------|
A|-------3--------3----------5----------8------|
E|--1111-1-111111-1-11--3333-3-33--6666-6-66---|


Lead and Rhythm
e|---------------------------------------------|
B|---------------------------------------------|
G|---------------------------------------------|
D|--9-8-7----6----5-----------5--------5-------| x 3
A|--7-6-5----4----3-----------5--------5-------|
E|---------6----5----4---0000---000000---00----|

e|--------------------------|
B|--------------------------|
G|------------5~--4~--------|
D|--9-8-7-----5~--4~--------| x 1
A|--7-6-5-----3~--2~--------|
E|---------6----------------|


Lead and Rhythm
e|-----------------------------|
B|-----------------------------|
G|-----------5~----------------|
D|-----------5~-------5/7-7~---| x 2
A|--2~-------3~-------5/7-7~---|
E|--0~--0-2------0h2--3/5-5~---|


Solo Tap Lead, The Rhythm
is under the end of Lead solo

     T      T
e|---------------------|
B|---------------------|
G|--12p5h9-12p5h9------|
D|---------------------| x 13
A|---------------------|
E|---------------------|

Lead
e|-----------------------------------------------|
B|--10~-10b-10b-10-8-7~-7-8-7h8p7----------------|
G|--------------------------------9-7---7-7-9~---|
D|------------------------------------9----------|
A|-----------------------------------------------|
E|-----------------------------------------------|

Lead
e|----------------------------------------------|
B|------5--5/-7--7--7-/8--8--8/-10-10-10-10\8---|
G|----------------------------------------------|
D|------2--2/-4--4--4-/5--5--5/-7--7--7--7-\5---|
A|--7\------------------------------------------|
E|--7\------------------------------------------|

Lead
e|--------------------------------------------------------------|
B|-8-/10-10/-12---12-\10--10-/12--12/-13--13/--15--15/-17--17---|
G|--------------------------------------------------------------|
D|-5-/7---7/--9---9--\7---7--/9---9/--10--10/--12--12/-14--14---|
A|--------------------------------------------------------------|
E|--------------------------------------------------------------|

Lead
e|----------------------------------------------------14-19-17b---|
B|------------15-17b-17p15-17-15----15~-----15-17-17b-------------|
G|--12-14-16~--------------------16------16-----------------------|
D|----------------------------------------------------------------|
A|----------------------------------------------------------------|
E|----------------------------------------------------------------|

Lead
e|--17p14-22b--22-19-22-19----19----------|
B|-------------------------22----22b------|
G|----------------------------------------|
D|----------------------------------------|
A|----------------------------------------|
E|----------------------------------------|

Lead
e|--14h17p14----14h17p14-------------------17p14-------------|
B|-----------17----------17-14----14h17p14-------17-14-------|
G|-----------------------------16----------------------16----|
D|-----------------------------------------------------------|
A|-----------------------------------------------------------|
E|-----------------------------------------------------------|

Lead
e|----------------------------------------------------------------|
B|--14h17p14------------------------------------------------------|
G|-----------16p14-16p14-16p14------------------------------------|
D|-----------------------------16-14----14h16p14------------------|
A|-----------------------------------16----------16p14----14-14---|
E|-----------------------------------------------------17---------|

Lead
e|---------------------------------------------------------|
B|--------------------------------------------------14~----|
G|-----------------------14h16-16p14----14h16-14h16--------|
D|-----------------14h16-------------16--------------------|
A|-----------14h15-----------------------------------------|
E|--17p14h17-----------------------------------------------|

Lead
e|--17b-17b-17b-17~-17-14----14h17p14--------------------------------|
B|------------------------17----------17-141414-17p14----------------|
G|----------------------------------------------------16p14----------|
D|----------------------------------------------------------14-14----|
A|-------------------------------------------------------------------|
E|-------------------------------------------------------------------|

Lead
e|-----------------14-17p14-----|
B|--------------17--------------|
G|--16b-14b---------------------|
D|----------16~-----------------|
A|------------------------------|
E|------------------------------|

Lead
e|-----14-17-19-17p14-----14-17-19p14-17p14-------|
B|--17-----------------17-------------------------|
G|------------------------------------------------|
D|------------------------------------------------| x 2
A|------------------------------------------------|
E|------------------------------------------------|

Lead
e|-----14-----------------------------------------------------|
B|--17----17p14-17p14----14-----------------------------------|
G|--------------------16----16p14-16p14----14h16--------------|
D|--------------------------------------16-------14-14-16~----|
A|------------------------------------------------------------|
E|------------------------------------------------------------|

Lead
e|-------------------------------------14h15p14-------------------|
B|--------14-15--14h15p14----14-15--17----------17-15-14-15-17----|
G|--14-16-----------------16--------------------------------------|
D|----------------------------------------------------------------|
A|----------------------------------------------------------------|
E|----------------------------------------------------------------|

Lead
e|-----------------19----19-20-19-20-22b-22b-22b----|
B|--19-20-22-20-22----22----------------------------|
G|--------------------------------------------------|
D|--------------------------------------------------|
A|--------------------------------------------------|
E|--------------------------------------------------|

Lead
e|--12-14-16-14-12-14-12----14-12-------------------12----------------|
B|-----------------------15-------15-12-15-13-12-13----15-12-15-13----|
G|--------------------------------------------------------------------|
D|--------------------------------------------------------------------|
A|--------------------------------------------------------------------|
E|--------------------------------------------------------------------|

Lead
e|---------------------------------|
B|-----13-12-------12--------------|
G|--14-------14-12----14-12--0w----|
D|---------------------------------|
A|---------------------------------|
E|---------------------------------|

Lead
e|--12b-12b-12b-12b-12b-12b-12b-12b----|
B|-------------------------------------|
G|-------------------------------------|
D|-------------------------------------|
A|-------------------------------------|
E|-------------------------------------|

Lead
e|--15p12-14p12----12-------------------------------------|
B|--------------15----15p14p12-14p12----------------------|
G|-----------------------------------14p12----12-14p12----|
D|-----------------------------------------14-------------|
A|--------------------------------------------------------|
E|--------------------------------------------------------|

Lead
e|---------------------11-----------------11--------------------|
B|--14b-14b-14b-----12----14-12--------------14-12--------------|
G|--14b-14b-14b--13-------------14-13--------------14-13--------|
D|------------------------------------11-----------------11-----|
A|--------------------------------------------------------------|
E|--------------------------------------------------------------|

Lead
e|--12-11--------------12-11-----------------|
B|--------14-12--------------14-12-----------|
G|--------------14-13--------------14-13-----|
D|-------------------------------------------|
A|-------------------------------------------|
E|-------------------------------------------|

Lead
e|--14-12-11-----------16-14-12-----------17-16-14-----------22b---|
B|-----------14-12--------------16-14-12-----------17-16-14--------|
G|-----------------14----------------------------------------------|
D|-----------------------------------------------------------------|
A|-----------------------------------------------------------------|
E|-----------------------------------------------------------------|

Lead
e|-----8-12p8----8-12p8----8-12p8----8-12p8----7----|
B|--10--------10--------10--------10--------10------|
G|--------------------------------------------------|
D|--------------------------------------------------|
A|--------------------------------------------------|
E|--------------------------------------------------|

Lead
e|--10p7---7-10p7---7-10p7---7-10p7----6-10p6---6-10p6---6-10p6---6-10p6---|
B|-------8--------8--------8---------8--------8--------8--------8----------|
G|-------------------------------------------------------------------------|
D|-------------------------------------------------------------------------|
A|-------------------------------------------------------------------------|
E|-------------------------------------------------------------------------|

Lead
e|--------9p5-0-5--9p5-0-5--9p5-0-5--9p5-0-----|
B|--8-10---------------------------------------|
G|---------------------------------------------|
D|---------------------------------------------|
A|---------------------------------------------|
E|---------------------------------------------|

Lead
e|--12p8----8-12p8----8-12p8----8-12p8----7----|
B|-------10--------10--------10--------10------|
G|---------------------------------------------|
D|---------------------------------------------|
A|---------------------------------------------|
E|---------------------------------------------|

Lead
e|--10p7---7-10p7---7-10p7---7-10p7----6-10p6---6-10p6---6-10p6---6-10p6---|
B|-------8--------8--------8---------8--------8--------8--------8----------|
G|-------------------------------------------------------------------------|
D|-------------------------------------------------------------------------|
A|-------------------------------------------------------------------------|
E|-------------------------------------------------------------------------|

Lead
e|--------9p5-0-5--9p5-0-5--9p5-0-5--9p5-0-----|
B|--8-10---------------------------------------|
G|---------------------------------------------|
D|---------------------------------------------|
A|---------------------------------------------|
E|---------------------------------------------|

Lead
e|--13p8----8-13p8----8-13p8----8-13p8----15p10----10-15p10----18p13----|
B|-------10--------10--------10--------10-------12----------12----------|
G|----------------------------------------------------------------------|
D|----------------------------------------------------------------------|
A|----------------------------------------------------------------------|
E|----------------------------------------------------------------------|

Lead
e|-----13-18p13----20p15----15-20p15-20p15----15-20p15-20p15-----|
B|--15----------15-------17----------------17--------------------|
G|---------------------------------------------------------------|
D|---------------------------------------------------------------|
A|---------------------------------------------------------------|
E|---------------------------------------------------------------|

Lead
e|-----15-19p15----15-19p15-19p15----15-19p15-19p15---------|
B|--17----------17----------------17------------------------|
G|----------------------------------------------------------|
D|----------------------------------------------------------|
A|----------------------------------------------------------|
E|----------------------------------------------------------|

Lead
e|-----15-18p15----15-18p15-18p15----15-18p15-18p15---------|
B|--17----------17----------------17------------------------|
G|----------------------------------------------------------|
D|----------------------------------------------------------|
A|----------------------------------------------------------|
E|----------------------------------------------------------|

Lead
e|-----15-17p15----15-17p15-17p15----15-17p15-17p15--17-----|
B|--17----------17----------------17------------------------|
G|----------------------------------------------------------|
D|----------------------------------------------------------|
A|----------------------------------------------------------|
E|----------------------------------------------------------|

Lead
e|--13p8----8-13p8-13p8----8-13p8-13p8----15p10----10-15p10----|
B|-------10-------------10-------------10-------12-------------|
G|-------------------------------------------------------------|
D|-------------------------------------------------------------|
A|-------------------------------------------------------------|
E|-------------------------------------------------------------|

Lead solo end
e|-----18p13----13-18p13-----12b-12b-12b-12b-----|
B|--12-------15----------15----------------------|
G|-----------------------------------------------|
D|-----------------------------------------------|
A|-----------------------------------------------|
E|-----------------------------------------------|

Rhythm for solo
e|-----------------------------|
B|-----------------------------|
G|-----------5~----------------|
D|--2~-------5~-------5/7-7~---| x 4
A|--2~-------3~-------5/7-7~---|
E|--0~--0-2------0h2--3/5-5~---|

Rhythm for solo
e|------------------------------------------------------|
B|------------------------------------------------------|
G|------------------------------------------------------|
D|--------------7-----7-----2-4---4-----4-----4---------| x 4
A|--4-----4---0-5-5-5-5-----0-2-2-2-2-2-2-2-2-2-2-2-----|
E|--2-2-2-2-4-----------2-4-----------------------------|

Rhythm for solo
e|--------------------------|
B|--------------------------|
G|--2-2-2-------------------|
D|--2-2-2--5-5--3~----------| x 1
A|--0-0-0--5-5--3~----------|
E|---------3-3--1~----------|

Rhythm for solo
e|----------------------------------------------|
B|----------------------------------------------|
G|------------------------------------4-5-4-----|
D|------------------------------------4-5-4-----| x 4
A|------------------------------------2-3-2-----|
E|--000000-3p0-000000-3p0-000000-3p0------------|

Rhythm for solo
e|------------------------------------------------------|
B|------------------------------------------------------|
G|------------------------------------------------------|
D|---------10------------10-----------9--------9--------|
A|---------10------------10-----------9--------9--------|
E|--8-8-8-8-8-8-8-8-8-8-8-8-8-8--7777-7-777777-7-77-----|

e|------------------------------------------------------|
B|------------------------------------------------------|
G|------------------------------------------------------|
D|-------8--------8----------7--------7-----------------|
A|-------8--------8----------7--------7-----------------|
E|--6666-6-666666-6-66--5555-5-555555-5-00--------------|

Rhythm for solo
e|------------------------------------------------------|
B|------------------------------------------------------|
G|------------------------------------------------------|
D|---------10------------10-----------9--------9--------|
A|---------10------------10-----------9--------9--------|
E|--8-8-8-8-8-8-8-8-8-8-8-8-8-8--7777-7-777777-7-77-----|

e|------------------------------------------------------|
B|------------------------------------------------------|
G|------------------------------------------------------|
D|-------8--------8----------7--------7-----------------|
A|-------8--------8----------7--------7-----------------|
E|--6666-6-666666-6-66--5555-5-555555-5-55--------------|

e|---------------------------------------------------------------------|
B|---------------------------------------------------------------------|
G|---------10------------10--------------------------------------------|
D|---------10------------10-----------------12---------------8---------|
A|--8-8-8-8-8-8-8-8-8-8-8-8-8-8-------------12---------------8---------|
E|------------------------------10-10-10-10-10-10-10-6-6-6-6-6-6-6-----|

Rhythm for solo ending
e|------------------------------------------------------|
B|------------------------------------------------------|
G|------------------------------------------------------|
D|---------10------------10-----------9--------9--------|
A|---------10------------10-----------9--------9--------|
E|--8-8-8-8-8-8-8-8-8-8-8-8-8-8--7777-7-777777-7-77-----|

e|------------------------------------------------------|
B|------------------------------------------------------|
G|------------------------------------------------------|
D|-------8--------8----------7--------7-----------------|
A|-------8--------8----------7--------7-----------------|
E|--6666-6-666666-6-66--5555-5-555555-5-55--------------|

e|---------------------------------------------|
B|---------------------------------------------|
G|---------------------------------------------|
D|-------3--------3----------5----------8------|
A|-------3--------3----------5----------8------|
E|--1111-1-111111-1-11--3333-3-33--6666-6-66---|


Lead and Rhythm
e|---------------------------------------------|
B|---------------------------------------------|
G|---------------------------------------------|
D|--9-8-7----6----5-----------5--------5-------| x 4
A|--7-6-5----4----3-----------5--------5-------|
E|---------6----5----4---0000---000000---00----|

Lead and Rhythm
e|------------------------------------------------------|
B|------------------------------------------------------|
G|------------------------------------------------------|
D|---------10------------10-----------9--------9--------|
A|---------10------------10-----------9--------9--------|
E|--8-8-8-8-8-8-8-8-8-8-8-8-8-8--7777-7-777777-7-77-----|

e|------------------------------------------------------|
B|------------------------------------------------------|
G|------------------------------------------------------|
D|-------8--------8----------7--------7-----------------|
A|-------8--------8----------7--------7-----------------|
E|--6666-6-666666-6-66--5555-5-555555-5-00--------------|

e|------------------------------------------------------|
B|------------------------------------------------------|
G|------------------------------------------------------|
D|-------3--------3----------5--------5----------8------|
A|-------3--------3----------5--------5----------8------|
E|--1111-1-111111-1-11--3333-3-333333-3-33--6666-6-66---|


Lead and Rhythm
e|---------------------------------------------|
B|---------------------------------------------|
G|---------------------------------------------|
D|--9-8-7----6----5-----------5--------5-------| x 3
A|--7-6-5----4----3-----------5--------5-------|
E|---------6----5----4---0000---000000---00----|

e|-----------------------|
B|-----------------------|
G|------------5~---------|
D|--9-8-7-----5~---------| x 1
A|--7-6-5-----3~---7\----|
E|---------6-------7\----|

Lead and Rhythm
e|-----------------------------|
B|-----------------------------|
G|-----------------------------|
D|-----------------------------| x 11
A|--7/8-------7/8--------------|
E|--5/6--0-0--5/6--0-0-0-0-----|

e|---------------------------------------|
B|---------------------------------------|
G|---------------------------------------|
D|---------------------------------------| x 1
A|--7/8-------7/8-------10-9--8--10-9----|
E|--5/6--0-0--5/6--0-0---8-7--6---8-7----|


Lead and Rhythm
e|-----------------------------|
B|-----------------------------|
G|-----------------------------|
D|-----------------------------| x 3
A|--7/8-------7/8--------------|
E|--5/6--0-0--5/6--0-0-0-0-----|

e|------------------------------|
B|------------------------------|
G|------------------------------|
D|------------------------------| x 1
A|--7/8-------7/8-------10-9----|
E|--5/6--0-0--5/6--0-0---8-7----|

Lead and Rhythm
e|-----------------------------|
B|-----------------------------|
G|-----------------------------|
D|-----------------------------| x 3
A|--7/8-------7/8--------------|
E|--5/6--0-0--5/6--0-0-0-0-----|

e|------------------------------|
B|------------------------------|
G|------------------------------|
D|------------------------------| x 1
A|--7/8-------7/8-------10-9----|
E|--5/6--0-0--5/6--0-0---8-7----|


Lead and Rhythm
e|---------------------------|
B|---------------------------|
G|---------------------------|
D|---------------------------| x 4
A|--2h4------2h4-------------|
E|--2----2-2-2----2-2-2-2----|


Lead and Rhythm
e|--------------------------------|
B|--------------------------------|
G|--------------------------------|
D|--6-----5-4-----6---22222222----| x 1
A|--4-----3-2-----4---00000000----|
E|-----x-------x------------------|

e|-------------------------------------|
B|-------------------------------------|
G|-------------------------------------|
D|--6-----5-4-----6---22222222---------| x 1
A|--4-----3-2-----4---00000000--2-2----|
E|-----x-------x-----------------------|


Lead and Rhythm
e|---------------------------|
B|---------------------------|
G|---------------------------|
D|---------------------------| x 2
A|--2h4------2h4-------------|
E|--2----2-2-2----2-2-2-2----|


Lead and Rhythm
e|--------------------------------|
B|--------------------------------|
G|--------------------------------|
D|--6-----5-4-----6---22222222----| x 2
A|--4-----3-2-----4---00000000----|
E|-----x-------x------------------|


Lead and Rhythm
e|-----------------------------|
B|-----------------------------|
G|-----------------------------|
D|--------2---5----------------| x 5
A|--4-2-4-0-4-3----------------|
E|--2-0-2---2------------------|

Lead and Rhythm
e|-----------------------------| 
B|-----------------------------|
G|-----------------------------|
D|--------2--------------------| x 1
A|--4-2-4-0-4-2----------------|
E|--2-0-2---2-0----------------|

Lead and Rhythm
e|-----------------------------|
B|-----------------------------|
G|-----------------------------|
D|--------2---5----------------| x 1
A|--4-2-4-0-4-3----------------|
E|--2-0-2---2------------------|

Lead and Rhythm
e|-----------------------------|
B|-----------------------------|
G|-----------------------------|
D|--------2--------------------| x 1
A|--4-2-4-0-4-2----------------|
E|--2-0-2---2-0----------------|


Lead and Rhythm
e|-----------------------------------------|
B|-----------------------------------------|
G|-----------------------------------------|
D|--------2---5---x-x-5-x-x-5-x-x-5\4------| x 1
A|--4-2-4-0-4-3---x-x-3-x-x-3-x-x-3\2------|
E|--2-0-2---2------------------------------|

e|-----------------------------|
B|-----------------------------|
G|-----------------------------|
D|--------2--------------------| x 1
A|--4-2-4-0-4-2----------------|
E|--2-0-2---2-0---00000000-----|


Lead and Rhythm
e|-----------------------------------------|
B|-----------------------------------------|
G|-----------------------------------------|
D|--------2---5---x-x-5-x-x-5-x-x-5\4------| x 1
A|--4-2-4-0-4-3---x-x-3-x-x-3-x-x-3\2------|
E|--2-0-2---2------------------------------|

e|-----------------------------|
B|-----------------------------|
G|-----------------------------|
D|--------2--------------------| x 1
A|--4-2-4-0-4-2----------------|
E|--2-0-2---2-0---00000000-----|


Lead Outro
e|----------------------------------------------|
B|-----12-13~--------12~------------------------|
G|---------------14------------11~----12--------|
D|--------------------------14-----------14~----|
A|----------------------------------------------|
E|--x---------x----------x---------x------------|

Rhythm Outro
e|----------------------------------------------|
B|----------------------------------------------|
G|-----11-12~-----------------------------------|
D|---------------12-14~-------------------------|
A|-------------------------12-14~---------------|
E|--x---------x---------x---------x--10-12~-----|


*********************************************************

|x   Dead note
|~   Let ring
|h   Hammer on
|p   Pull off
|b   bend
|/   slide
|\   slide
|T   Tap
|w   whammy

*********************************************************
Suggest correction
comments
print report bad tab
19 comments total. Showing first comments.
+3 reply
shcl00259 50 wrote on February 10 2010, 12:25 pm

Nice tab, man

0 reply
wild577mxracer 832 wrote on February 10 2010, 12:32 pm

Thanks man! (:

+2 reply
henrihell 480 wrote on February 10 2010, 05:36 pm

it's very accurate, but I would like to know the rhythm guitar under the solo 'cause I'm new to guitar so I can't play the solo yet

guest
You may want to rate the tab now too:
select rating
Please do not post tabs as comments. Select "correction" instead!