Oops, an error
Loading. Please wait.

Ride The Lightning Tab

version 6
version 6

Whole song

Video

40 views 40 this week
no commentswrite comment
1 2 3 4 5
3 more votes to show rating
add to favorites
launch autoscroll
font size
0
reset
how to read this tab
guitar tuner
backing track
0:00
0:00
×
Best way to learn
"Ride The Lightning"
Autoscroll
slow
fast
+/-
esc
set tempo
stop
Author
Difficulty
About this tab version
This tab includes the palm muted E notes in the intro and outro, and all guitar-harmonies of the song. Was this info helpful? Yes No
Artist: Metallica
Song: Ride The Lightning
Album: Ride The Lightning

Tabulature Legend
----------------
 h   - hammer-on
 p   - pull-off
 b   - bend
 T   - tapping
 PM  - palm muting
 LR  - let ring
 |*  - repeat x-times
 /   - slide up
 \   - slide down
 ~   - vibrato
 X   - dead note
 ()  - ghost note
---------------------------------------------------------------------------------------


[Intro]
Harmony 1
      James
e| | |-----------------------------|-----------------------------||
B| | *-----------------------------|-----------------------------*|
G|4|3|-----11--12~~~---------------|-----------------------------||
D|/|x|-------------------12--14~~~-|-----------------------------||
A|4| *-----------------------------|-----12--14~~~---------------*|
E| | |--0-------------0------------|--0-------------0--10--12~~~-||
 |      PM            PM              PM            PM
 |
 |    Kirk
e| | |-----------------------------|-----------------------------||
B| | *-----------------------------|-----------------------------*|
G|4|3|-----16--17~~~-----14--16~~~-|-----------------------------||
D|/|x|-----------------------------|-----14--16~~~-----17--14~~~-||
A|4| *-----------------------------|-----------------------------*|
E| | |--0-------------0------------|--0-------------0------------||
        PM            PM              PM            PM

  James
e|-----------------------------| |------------------------------------|
B|-----------------------------| |------------------------------------|
G|-----11--12~~~---------------|5|------------------------------------|
D|-------------------12--14~~~-|/|------------------------------------|
A|-----------------------------|4|-----12--14~~~----------------------|
E|--0-------------0------------| |--0-------------0--10--12~~~-0-h12~-|
 |  PM            PM                PM            PM
 |
 |Kirk
e|-----------------------------| |------------------------------------|
B|-----------------------------| |------------------------------------|
G|-----16--17~~~-----14--16~~~-|5|------------------------------------|
D|-----------------------------|/|-----14--16~~~-----17--14~~~--------|
A|-----------------------------|4|------------------------------------|
E|--0-------------0------------| |--0-------------0------------0-h12~-|
    PM            PM                PM            PM

Guitar 1 + 2
Main Riff
e| |  |------------------------------||
B| |  *------------------------------*|
G|4|12|------------------------------||
D|/|x |------------------------------||
A|4|  *--7/8--------7/8--------------*|
E| |  |--5/6--0--0--5/6--0--0--0--0--||
              PM.|       PM.......|


[Bridge 1]
e| |-------------------------||
B| *-------------------------*|
G|4|-------------------------||
D|x|----------------2-----5--||
A| *---4----2-------0--4--3--*|
E| |---2----0----2-----2-----||
                 PM


e| |--------------------|
B| |-----R--------------|
G|3|-----E--------------|
D|/|-----S--------------|
A|4|--4--T-------10--9--|
E| |--2----------8---7--|


[Verse 1]
e| ||--------------------------------|--------------------------------|
B| |*--------------------------------|--------------------------------|
G|4||--------------------------------|--------------------------------|
D|/||--------------------------------|--------------------------------|
A|4|*--7/8---------7/8---------------|--7/8---------7/8---------------|
E| ||--5/6---0--0--5/6---0--0--0--0--|--5/6---0--0--5/6---0--0--0--0--|
             PM..|       PM.......|           PM.|        PM.......|
               Guil-  -ty as charged,       but damnit, it ain't right
               Death  in the air            Strappedintheelectricchair

e|--------------------------------|--------------------------------||
B|--------------------------------|--------------------------------*|
G|--------------------------------|--------------------------------||
D|--------------------------------|--------------------------------||
A|--7/8---------7/8---- ----------|--7/8---------7/8---------10-9--*|
E|--5/6---0--0--5/6---0--0--0--0--|--5/6---0--0--5/6---0--0--8--7--||
          PM.|        PM.......|           PM.|        PM.|
        Someoneelse   controlling         me.
        Thiscan'tbe happening to          me.


Pre Chorus
e| ||------------------------------||
B| |*------------------------------*|
G|4||------------------------------||
D|x||------------------------------||
A| |*--2h4--------2h4--------------*|
E| ||--2----2--2--2----2--2--2--2--||
            PM.|       PM.......|
               Who     made  you        
       God     to sa- -ay
         "I'lltakeyourlifefromyou!"

[Chorus]
e|----------------------|-------------------------|----------------------|-------------------------------|
B|----------------------|-------------------------|----------------------|-------------------------------|
G|----------------------|-------------------------|----------------------|-------------------------------|
D|--6------5--4------6--|--2--2--2--2--2--2--2--2-|--6------5--4------6--|--2--2--2--2--2--2-------------|
A|--4------3--2------4--|--0--0--0--0--0--0--0--0-|--4------3--2------4--|--0--0--0--0--0--0--0-h2b4r2~~-|
E|----------------------|-------------------------|----------------------|-------------------------------|
                           PM--.................|                           PM.............|
    Flash   be-fore   my   eyes!                            Now    it'stime  to   die!

e||----------------------------||
B|*----------------------------*|
G||----------------------------||
D||----------------------------||
A|*--2h4-------2h4-------------*|
E||--2---2--2--2---2--2--2--2--||
         PM.|    PM.........|

e|----------------------|-------------------------|----------------------|-----------------------------|
B|----------------------|-------------------------|----------------------|-----------------------------|
G|----------------------|-------------------------|----------------------|-----------------------------|
D|--6------5--4------6--|--2--2--2--2--2--2--2--2-|--6------5--4------6--|--2----2----2--2--2--2--2--2-|
A|--4------3--2------4--|--0--0--0--0--0--0--0--0-|--4------3--2------4--|--0----0----0--0--0--0--0--0-|
E|----------------------|-------------------------|----------------------|-----------------------------|
                           PM...................|                           PM.......................|
  Bur-   -ningin    my    brain,                   I      can feel   the   fla--ame.


[Bridge 1]
e| |-------------------------||
B| *-------------------------*|
G|4|-------------------------||
D|x|----------------2-----5--||
A| *---4----2-------0--4--3--*|
E| |---2----0----2-----2-----||
                 PM

[Verse 2]
e||--------------------------------|--------------------------------|
B|*--------------------------------|--------------------------------|
G||--------------------------------|--------------------------------|
D||--------------------------------|--------------------------------|
A|*--7/8---------7/8---------------|--7/8---------7/8---------------|
E||--5/6---0--0--5/6---0--0--0--0--|--5/6---0--0--5/6---0--0--0--0--|
           PM..|       PM.......|           PM.|        PM.......|
      Wait   for     the sign,           To flick the switch of death
      Sweat,chil-   -ling  cold          As  I  watchdeathunfold

e|--------------------------------|--------------------------------||
B|--------------------------------|--------------------------------*|
G|--------------------------------|--------------------------------||
D|--------------------------------|--------------------------------||
A|--7/8---------7/8---- ----------|--7/8---------7/8---------10-9--*|
E|--5/6---0--0--5/6---0--0--0--0--|--5/6---0--0--5/6---0--0--8--7--||
          PM.|        PM.......|           PM.|        PM.|
     It's the begin--ningoftheend
     Consciousness   myonlyfriend


[Pre-Chorus]х
e| ||------------------------------||
B| |*------------------------------*|
G|4||------------------------------||
D|x||------------------------------||
A| |*--2h4--------2h4--------------*|
E| ||--2----2--2--2----2--2--2--2--||
            PM.|       PM.......|
       My  fin-     -gers grip
       with fear
       What am I do-  -ing here?

[Chorus]
e|----------------------|-------------------------|----------------------|-------------------------------|
B|----------------------|-------------------------|----------------------|-------------------------------|
G|----------------------|-------------------------|----------------------|-------------------------------|
D|--6------5--4------6--|--2--2--2--2--2--2--2--2-|--6------5--4------6--|--2--2--2--2--2--2-------------|
A|--4------3--2------4--|--0--0--0--0--0--0--0--0-|--4------3--2------4--|--0--0--0--0--0--0--0-h2b4r2~~-|
E|----------------------|-------------------------|----------------------|-------------------------------|
                           PM...................|                           PM.............|
   Flash   be-fore   my   eyes!                      Now    it'stime  to   die!

e||----------------------------||
B|*----------------------------*|
G||----------------------------||
D||----------------------------||
A|*--2h4-------2h4-------------*|
E||--2---2--2--2---2--2--2--2--||
         PM.|    PM.........|

e|----------------------|-------------------------|----------------------|-----------------------------|
B|----------------------|-------------------------|----------------------|-----------------------------|
G|----------------------|-------------------------|----------------------|-----------------------------|
D|--6------5--4------6--|--2--2--2--2--2--2--2--2-|--6------5--4------6--|--2----2----2--2--2--2--2--2-|
A|--4------3--2------4--|--0--0--0--0--0--0--0--0-|--4------3--2------4--|--0----0----0--0--0--0--0--0-|
E|----------------------|-------------------------|----------------------|-----------------------------|
                           PM...................|                           PM.......................|
  Bur-   -ningin    my    brain,                   I      can feel   the   fla--ame.


[Bridge 2]
e| |-------------------------|--------------------------------||
B| *-------------------------|--------------------------------*|
G|4|-------------------------|--------------------------------||
D|x|--9--8--7-----5-----4----|----------5--------------5------||
A| *--7--6--5-----3-----2--5-|----------5--------------5------*|
E| |-----------6-----4-----3-|--0-0-0-0----0-0-0-0-0-0----0-0-||
               PM    PM         PM....|    PM........|    PM|

[Verse 3]
e|--------------------------------|--------------------------------|
B|--------------------------------|--------------------------------|
G|----------5--------------5------|----------4--------------4------|
D|----------5--------------5------|----------4--------------4------|
A|--3-3-3-3----3-3-3-3-3-3----3-3-|--2-2-2-2----2-2-2-2-2-2----2-2-|
E|--------------------------------|--------------------------------|
    PM....|    PM........|    PM...........|    PM........|    PM|
           Someone   help me            Oh  please God help me

e|--------------------------------|--------------------------------|
B|--------------------------------|--------------------------------|
G|----------3--------------3------|----------2--------------2------|
D|----------3--------------3------|----------2--------------2------|
A|--1-1-1-1----1-1-1-1-1-1----1-1-|--0-0-0-0----0-0-0-0-0-0----3-3-|
E|--------------------------------|----------------------------1-1-|
    PM....|    PM........|    PM...........|    PM........|    PM|
      They'retryingtotake it all    a-  -way

e|--------------------------------|--------------------------------|
B|--------------------------------|--------------------------------|
G|--------------------------------|--------------------------------|
D|----------3--------------3------|----------5--------------8------|
A|----------3--------------3------|----------5--------------8------|
E|--1-1-1-1----1-1-1-1-1-1----1-1-|--3-3-3-3----3-3-6-6-6-6----6-6-|
    PM....|    PM........|    PM...........|    PM........|    PM|
   I                     don't      want           to         die

[Bridge 2]
e| |-------------------------|--------------------------------||
B| *-------------------------|--------------------------------*|
G|4|-------------------------|--------------------------------||
D|x|--9--8--7-----5-----4----|----------5--------------5------||
A| *--7--6--5-----3-----2--5-|----------5--------------5------*|
E| |-----------6-----4-----3-|--0-0-0-0----0-0-0-0-0-0----0-0-||
               PM    PM         PM....|    PM........|    PM|

Solo Bridge
e|--------------|-------------------|------------------|-------------------|
B|--------------|-------------------|------------------|-------------------|
G|--------------|-------------------|------------------|-------------------|
D|--9--8--7-----|--5----------------|------------------|--4----------------|
A|--7--6--5--0--|--3----------------|------------------|--2----------------|
E|--------------|-------------------|------------------|-------------------|
                   LR...................|                 LR............|


e||-------------------|---------------------|---------------------|------------------||
B|*-------------------|---------------------|---------------------|------------------*|
G||-------------------|---------------------|---------------------|------------------||
D||-------------------|--5------------------|---------------------|------------------||
A|*-2-----------------|--3------------------|--5-/-7----7---------|------------------*|
E||-0-----------0--3--|---------------0--2--|--3-/-5----5---------|------------------||
                PM.|                  PM.|              LR.....................|

Solo Backing
e| |-------------------|---------------------|---------------------|------------------||
B| *-------------------|---------------------|---------------------|------------------*|
G|4|-------------------|---------------------|---------------------|------------------||
A|x|-------------------|--5------------------|---------------------|------------------||
A| *-2-----------------|--3------------------|--5-/-7----7---------|------------------*|
E| |-0-----------0--3--|---------------0--2--|--3-/-5----5---------|------------------||
                 PM.|                  PM.|              LR.....................|


e| |-------------------|---------------------|---------------------|---------------------||
B| *-------------------|---------------------|---------------------|---------------------*|
G|4|-------------------|---------------------|---------------------|---------------------||
D|x|-------------------|--7-------7----------|---------------------|---------------------||
A| *-2-------4------0--|--5---5-5-5----------|--7-/-9---- 9--------|--9---------9--------*|
E| |-2---2-2-2---4-----|---------------2--4--|--5-/-7--7--7---7--7-|--7---7--7--7---7--7-||
         PM|     PM.|                  PM.|            PM     PM.|        PM.|      PM.|


e|-----------------|-------------------|------------------|-------------------|
B|-----------R-----|--------R----------|------------------|-------------------|
G|-----------E-----|--------E----------|------------------|-------------------|
D|--2--2--2--S-----|--------S----------|------------------|-------------------|
A|--0--0--0--T-----|--5--5--T----------|--3---------------|-------------------|
E|-----------------|--3--3-------------|--1---------------|-------------------|
                                          LR....................|

e| |----------------------------------|--------------------------------||
B| *----------------------------------|--------------------------------*|
G|4|----------------------------------|--------------------------------||
D|x|----------------------------------|-------------------4--5--4------||
A| *----------------------------------|-------------------2--3--2------*|
E| |--0-0-0-0-0-0h3p0-0-0-0-0-0-0h3p0-|--0-0-0-0-0-0h3p0---------------||
      PM......|       PM......|          PM......|


e||----------------------------------|----------------------------------|
B|*----------------------------------|----------------------------------|
G||----------5--------------5--------|----------4--------------4--------|
D||----------5--------------5--------|----------4--------------4--------|
A|*--3-3-3-3----3-3-3-3-3-3----3-3---|--2-2-2-2----2-2-2-2-2-2----2-2---|
E||----------------------------------|----------------------------------|
     PM....|    PM........|    PM|      PM....|    PM........|    PM|


e|----------------------------------|----------------------------------||
B|----------------------------------|----------------------------------*|
G|----------3--------------3--------|----------2--------------2--------||
D|----------3--------------3--------|----------2--------------2--------||
A|--1-1-1-1----1-1-1-1-1-1----1-1---|--0-0-0-0----0-0-0-0-0-0----0-0---*|
E|----------------------------------|----------------------------------||
    PM....|    PM........|    PM|      PM....|    PM........|    PM|


e|----------------------------------|---------------------------------------|
B|----------------------------------|---------------------------------------|
G|----------10--------------10------|---------------------------------------|
D|----------10--------------10------|--------------12----------------8------|
A|--8-8-8-8-----8-8-8-8-8-8-----8-8-|--------------12----------------8------|
E|----------------------------------|--10-10-10-10-----10-10-6-6-6-6----6-6-|
    PM....|     PM........|     PM|    PM........|     PM..........|    PM|


e|----------------------------------|----------------------------------|
B|----------------------------------|----------------------------------|
G|----------------------------------|----------------------------------|
D|----------10--------------10------|----------9--------------9--------|
A|----------10--------------10------|----------9--------------9--------|
E|--8-8-8-8-----8-8-8-8-8-8-----8-8-|--7-7-7-7----7-7-7-7-7-7----7-7---|
    PM....|     PM........|     PM|    PM....|    PM........|    PM|


e|---------------------------------|---------------------------------|
B|---------------------------------|---------------------------------|
G|---------------------------------|---------------------------------|
D|----------8-------------8--------|----------7-------------7--------|
A|----------8-------------8--------|----------7-------------7--------|
E|--6-6-6-6---6-6-6-6-6-6----6-6---|--5-5-5-5---5-5-5-5-5-5----5-5---|
    PM....|   PM........|    PM|      PM....|   PM........|    PM|


e|---------------------------------|---------------------------------|
B|---------------------------------|---------------------------------|
G|---------------------------------|---------------------------------|
D|----------3--------------3-------|----------5--------------8-------|
A|----------3--------------3-------|----------5--------------8-------|
E|--1-1-1-1----1-1-1-1-1-1----1-1--|--3-3-3-3----3-3-6-6-6-6----6-6--|
    PM....|    PM........|    PM|     PM....|    PM........|    PM|


[Solo]
    T      T      T      T      T      T      T      T
e|-----------------------------------------------------------|
B|-----------------------------------------------------------|
G|--12p5h9h12p5h9h12p5h9h12p5h9h12p5h9h12p5h9h12p5h9h12p5h9h-|
D|-----------------------------------------------------------|
A|-----------------------------------------------------------|
E|-----------------------------------------------------------|

    T      T      T      T      T      T      T      T
e|-----------------------------------------------------------|
B|-----------------------------------------------------------|
G|--12p5h9h12p5h9h12p5h9h12p5h9h12p5h9h12p5h9h12p5h9h12p5h9h-|
D|-----------------------------------------------------------|
A|-----------------------------------------------------------|
E|-----------------------------------------------------------|

    T      T      T      T      T      T      T      T
e|-----------------------------------------------------------|
B|-----------------------------------------------------------|
G|--12p5h9h12p5h9h12p5h9h12p5h9h12p5h9h12p5h9h12p5h9h12p5h9h-|
D|-----------------------------------------------------------|
A|-----------------------------------------------------------|
E|-----------------------------------------------------------|


     T      T      T      T
e|----------------------------------------------|----------------------------|
B|---------------------------------10-----------|--10b---10b-------10----8---|
G|---12p5h9h12p5h9h12p5h9h12p5h9h---------------|----------------------------|
D|----------------------------------------------|----------------------------|
A|----------------------------------------------|----------------------------|
E|----------------------------------------------|----------------------------|


e|---------------------------------|--------------------------------|--------------------------------|
B|--7~~~~~~~~~~~---7--8--7h8p7-----|--------------------------------|--------------------------------|
G|------------------------------9--|--7-------7---7---9~~~~~~~~~~~~~|~~~~~~~~~~(9)----------------7--|
D|---------------------------------|------9-------------------------|--------------------------------|
A|---------------------------------|--------------------------------|-----------------------------5--|
E|---------------------------------|--------------------------------|----------------7---------------|


e|---------------------------|---------------------------|---------------------------|
B|---------------------------|---------------------------|---------------------------|
G|---9-/11-11-11-11/12-12-12-|--12/14-14-14-14\12-12/14--|--14/16-16\14-14/16-16-----|
D|---X------X--X--X-----X--X-|---X-----X--X--X-----X--X--|---X-----X-----X-----X-----|
A|---7-/-9--9--9--9/10-10-10-|--10/12-12-12-12\10-10/12--|--12/14-14\12-12/14-14/15--|
E|---------------------------|---------------------------|---------------------------|


e|---------------------------|-------------------------------|---------------------------|
B|---------------------------|-------------------------------|---------------------------|
G|--------------------12-14--|--16~~~~~~~~~~--19-21b23r21p19-|--21-19----19-------19--21-|
D|---------------------------|-------------------------------|--------21-------21--------|
A|--15h17-17/19-19~~~--------|-------------------------------|---------------------------|
E|---------------------------|-------------------------------|---------------------------|


e|-----------19----------------22b24~~~~~-|--22p19-22h19-----19----------------14-|
B|--------19----22b24----22p19------------|--------------22------22b24----(22)----|
G|--21b23---------------------------------|---------------------------------------|
D|----------------------------------------|---------------------------------------|
A|----------------------------------------|---------------------------------------|
E|----------------------------------------|---------------------------------------|


e|--17p14----14-17p14----------------------17p14-------|
B|--------17----------17-14-------14-17p14-------17-14-|
G|--------------------------16b18----------------------|
D|-----------------------------------------------------|
A|-----------------------------------------------------|
E|-----------------------------------------------------|


e|-----------------------------------------------------|
B|--------14-17p14-------------------------------------|
G|--16b18----------16p14h16p14h16p14-------------------|
D|-----------------------------------16-14----14-16p14-|
A|-----------------------------------------16----------|
E|-----------------------------------------------------|


e|---------------------------------------------|--------------------------------|
B|---------------------------------------------|----------------------------14--|
G|---------------------------------------14-16-|--16p14----14-h16-14~~~--16-----|
D|--------------------------------14--16-------|--------16----------------------|
A|--16p14----14-14----------14h15--------------|--------------------------------|
E|--------17-------17-14-17--------------------|--------------------------------|


e|---------------------------------17b19--|-----17b19-----17b19-----------17-14-|
B|--17b19-r17b19-r17b19-r17----14---------|-------------------------------------|
G|----------------------------------------|-------------------------------------|
D|----------------------------------------|-------------------------------------|
A|----------------------------------------|-------------------------------------|
E|----------------------------------------|-------------------------------------|


e|--17p14----14-17p14------------------------------|-----------------------------------14-|
B|--------17----------17-14-14-14-17p14------------|-------------------------------17-----|
G|--------------------------------------16p14----14|---16b18---14b14,5--------------------|
D|--------------------------------------------16---|-----------------------16-------------|
A|-------------------------------------------------|--------------------------------------|
E|-------------------------------------------------|--------------------------------------|


e|--17p14----17p14h19p14h17p14----14-17p14h19p14|--17p14----14-17p14h19p14h17p14----14-17p14h19p14|
B|--------17-------------------17---------------|--------17----------------------17---------------|
G|----------------------------------------------|-------------------------------------------------|
D|----------------------------------------------|-------------------------------------------------|
A|----------------------------------------------|-------------------------------------------------|
E|----------------------------------------------|-------------------------------------------------|


e|--17p14----14-------------------------|-----------------------------------|
B|--------17----17p14h17p14----14-------|-----------------------------------|
G|--------------------------16----16p14-|--16p14----14--16------------------|
D|--------------------------------------|--------16----------14~~~~--14--16-|
A|--------------------------------------|-----------------------------------|
E|--------------------------------------|-----------------------------------|

e|--------------------------------------|------14--15p14---------------------|
B|----------14--15--14h1p-14-----14--15-|--17------------17--15--14--15--17--|
G|--14--16-------------------16---------|------------------------------------|
D|--------------------------------------|------------------------------------|
A|--------------------------------------|------------------------------------|
E|--------------------------------------|------------------------------------|



                                                                      |Harmony 2 ->
e                                                                        --12--14-|
B                                                                        ---------|
G                                                                        ---------|
D                                                                        ---------|
A                                                                        ---------|
E                                                                        ---------|
                                                                                  |
                                                                                  |
e|--14-15-17-15-17-19-17-19-20-19-20-22b24-|---------22b24------22b24------17--19-|
B|-----------------------------------------|--------------------------------------|
G|-----------------------------------------|--------------------------------------|
D|-----------------------------------------|--------------------------------------|
A|-----------------------------------------|--------------------------------------|
E|-----------------------------------------|--------------------------------------|


e|--16-14-12-14-12-10\9-12-10-8\7-10-8-7-|--/8-12-10--8--\7--10--8--7--\5--7--5--3--\2--5--3--2-|
B|---------------------------------------|------------------------------------------------------|
G|---------------------------------------|------------------------------------------------------|
D|---------------------------------------|------------------------------------------------------|
A|---------------------------------------|------------------------------------------------------|
E|---------------------------------------|------------------------------------------------------|
 |
 |
e|--21-19-17-19-17--15--17-15-14-17-15-12|--15-12-14-17-15-14\12-15-14-12\10-14-12-10\9-12-10-9-|
B|---------------------------------------|------------------------------------------------------|
G|---------------------------------------|------------------------------------------------------|
D|---------------------------------------|------------------------------------------------------|
A|---------------------------------------|------------------------------------------------------|
E|---------------------------------------|------------------------------------------------------|



Guitar 1 + 2
e|--------------------------|-----------------------|
B|--------------------------|-----------------------|
G|--------------------------|-----------------------|
D|--7-----------------------|-----------------------|
A|--------------------------|-----------------------|
E|--------------------------|-----------------------|
    LR....................|


[Solo 2]
e|--12----12-12-12----12-12-12----12-12-12----12-12|--12----12-12-12----12-12-12----12-12-12----12-12|
B|--15b17-------15b17-------15b17-------15b17------|--15b17-------15b17-------15b17-------15b17------|
G|-------------------------------------------------|-------------------------------------------------|
D|-------------------------------------------------|-------------------------------------------------|
A|-------------------------------------------------|-------------------------------------------------|
E|-------------------------------------------------|-------------------------------------------------|


e|-15p12h14p12----12-------------------------------|---------------------------------------12-|
B|-------------15----15p14h12p14h12----------------|---15--------15--------15-----------------|
G|----------------------------------14p12----12-14-|---14b16~~~--14b16-----14b16--------------|
D|----------------------------------------14-------|------------------------------------------|
A|-------------------------------------------------|------------------------------------------|
E|-------------------------------------------------|------------------------------------------|


Harmony 3
e|-------------------------------------|--------------------------------------|
B|--16-14-12----------16-14-12---------|--17-16-14----------17-16-14----------|
G|-----------15-13-11----------15-13-11|-----------16-15-13----------16-15-13-|
D|-------------------------------------|--------------------------------------|
A|-------------------------------------|--------------------------------------|
E|-------------------------------------|--------------------------------------|
 |
 |
e|--16-14-12----------16-14-12---------|--17-16-14----------17-16-14----------|
B|-----------16-14-12----------16-14-12|-----------17-16-14----------17-16-14-|
G|-------------------------------------|--------------------------------------|
D|-------------------------------------|--------------------------------------|
A|-------------------------------------|--------------------------------------|
E|-------------------------------------|--------------------------------------|



e|-------------------------------------|--------------------------------------|
B|--19-17-16----------19-17-16---------|--22-21-19----------22b24~~~~---------|
G|-----------18-16-15----------18-16-15|-----------21-20-18-----------------5-|
D|-------------------------------------|---------------------------------7----|
A|-------------------------------------|--------------------------------------|
E|-------------------------------------|--------------------------------------|
 |
 |
e|--19-17-16----------19-17-16---------|--22-21-19----------22b24~~~~-------8-|
B|-----------19-17-16----------19-17-16|-----------22-21-19-------------10----|
G|-------------------------------------|--------------------------------------|
D|-------------------------------------|--------------------------------------|
A|-------------------------------------|--------------------------------------|
E|-------------------------------------|--------------------------------------|


e|--19p15----15-19p15----15-19p15----15-19p15----14-|--17p14----14-17p14----14-17p14----14-17p14----13-|
B|--------17----------17----------17----------17----|--------15----------15----------15----------15----|
G|--------------------------------------------------|--------------------------------------------------|
D|--------------------------------------------------|--------------------------------------------------|
A|--------------------------------------------------|--------------------------------------------------|
E|--------------------------------------------------|--------------------------------------------------|
 |
 |
e|--12-p8-----8-12-p8-----8-12p-8-----8-12-p8-----7-|--10-p7-----7-10-p7-----7-10-p7------7-10-p7----6-|
B|--------10-----------10----------10---------10----|---------8-----------8-----------8------------8---|
G|--------------------------------------------------|--------------------------------------------------|
D|--------------------------------------------------|--------------------------------------------------|
A|--------------------------------------------------|--------------------------------------------------|
E|--------------------------------------------------|--------------------------------------------------|



e|--17p13----13-17p13----13-17p13----13-17p13----12-|--16p12----12-16p12----12-16p12----12-16p12----15-|
B|--------15----------15----------15----------14----|--------14----------14----------14----------17----|
G|--------------------------------------------------|--------------------------------------------------|
D|--------------------------------------------------|--------------------------------------------------|
A|--------------------------------------------------|--------------------------------------------------|
E|--------------------------------------------------|--------------------------------------------------|
 |
 |
e|--10-p6-----6-10-p6-----6-10-p6-----6-10-p6-----5-|---9-p5-----5--9-p5-----5--9-p5-----5--9-p5-----8-|
B|---------8-----------8-----------8-----------8----|---------5-----------5-----------5-----------5----|
G|--------------------------------------------------|--------------------------------------------------|
D|--------------------------------------------------|--------------------------------------------------|
A|--------------------------------------------------|--------------------------------------------------|
E|--------------------------------------------------|--------------------------------------------------|



e|--19p15----15-19p15----15-19p15----15-19p15----14-|--17p14----14-17p14----14-17p14----14-17p14----13-|
B|--------17----------17----------17----------17----|--------15----------15----------15----------15----|
G|--------------------------------------------------|--------------------------------------------------|
D|--------------------------------------------------|--------------------------------------------------|
A|--------------------------------------------------|--------------------------------------------------|
E|--------------------------------------------------|--------------------------------------------------|
 |
 |
e|--12-p8-----8-12-p8-----8-12p-8-----8-12-p8-----7-|--10-p7-----7-10-p7-----7-10-p7------7-10-p7----6-|
B|--------10-----------10----------10---------10----|---------8-----------8-----------8------------8---|
G|--------------------------------------------------|--------------------------------------------------|
D|--------------------------------------------------|--------------------------------------------------|
A|--------------------------------------------------|--------------------------------------------------|
E|--------------------------------------------------|--------------------------------------------------|



e|--17p13----13-17p13----13-17p13----13-17p13----12-|--16p12----12-16p12----12-16p12----12-16p12-----5-|
B|--------15----------15----------15----------14----|--------14----------14----------14----------14----|
G|--------------------------------------------------|--------------------------------------------------|
D|--------------------------------------------------|--------------------------------------------------|
A|--------------------------------------------------|--------------------------------------------------|
E|--------------------------------------------------|--------------------------------------------------|
 |
 |
e|--10-p6-----6-10-p6-----6-10-p6-----6-10-p6-----5-|---9-p5-----5--9-p5-----5--9-p5-----5--9-p5-----8-|
B|---------8-----------8-----------8-----------8----|---------5-----------5-----------5-----------5----|
G|--------------------------------------------------|--------------------------------------------------|
D|--------------------------------------------------|--------------------------------------------------|
A|--------------------------------------------------|--------------------------------------------------|
E|--------------------------------------------------|--------------------------------------------------|



e|---8-p5-----5--8-p5-----5--8-p5-----5--8-p5-----6-|--10-p6-----6-10-p6-----6-13p10----10-13p10----10-|
B|---------6-----------6-----------6-----------6----|---------8-----------8----------11----------11----|
G|--------------------------------------------------|--------------------------------------------------|
D|--------------------------------------------------|--------------------------------------------------|
A|--------------------------------------------------|--------------------------------------------------|
E|--------------------------------------------------|--------------------------------------------------|
 |
 |
e|--13-p8-----8-13-p8-----8-13-p8-----8-13-p8----10-|--15p10----10-15p10----13-18p13----13-18p13----15-|
B|--------10----------10----------10----------10----|--------12----------12----------15----------15----|
G|--------------------------------------------------|--------------------------------------------------|
D|--------------------------------------------------|--------------------------------------------------|
A|--------------------------------------------------|--------------------------------------------------|
E|--------------------------------------------------|--------------------------------------------------|



e|--15p12----12-15p12h15p12----12-15p12h15p12----12-|--14p10----10-14p10h14p10----10-14p10h14p10----10-|
B|--------13----------------13----------------13----|--------12----------------12----------------12----|
G|--------------------------------------------------|--------------------------------------------------|
D|--------------------------------------------------|--------------------------------------------------|
A|--------------------------------------------------|--------------------------------------------------|
E|--------------------------------------------------|--------------------------------------------------|
 |
 |
e|--20p15----15-20p15h20p15----15-20p15h15p20----15-|--19p15----15-19p15h19p15----15-19p15h19p15----15-|
B|--------17----------------17----------------17----|--------17----------------17----------------17----|
G|--------------------------------------------------|--------------------------------------------------|
D|--------------------------------------------------|--------------------------------------------------|
A|--------------------------------------------------|--------------------------------------------------|
E|--------------------------------------------------|--------------------------------------------------|



e|--13p10----10-13p10h13p10----10-13p10h13p10----10-|--12p10----10-12p10h12p10----10-12p10h12p10-----5-|
B|--------11----------------11----------------11----|--------11----------------11-----------------6----|
G|--------------------------------------------------|--------------------------------------------------|
D|--------------------------------------------------|--------------------------------------------------|
A|--------------------------------------------------|--------------------------------------------------|
E|--------------------------------------------------|--------------------------------------------------|
 |
 |
e|--18p15----15-18p15h18p15----15-18p15h18p15----15-|--17p15----15-17p15h17p15----15-17p15h17p15-----8-|
B|--------17----------------17----------------17----|--------17----------------17----------------10----|
G|--------------------------------------------------|--------------------------------------------------|
D|--------------------------------------------------|--------------------------------------------------|
A|--------------------------------------------------|--------------------------------------------------|
E|--------------------------------------------------|--------------------------------------------------|



e|---8-p5-----5--8-p5-h8-p5-----5--8-p5-h8-p5-----5-|--10-p6-----6-10-p6-----6-13p10----10-13p10----10-|
B|---------6-----------------6-----------------6----|---------8-----------8----------11----------11----|
G|--------------------------------------------------|--------------------------------------------------|
D|--------------------------------------------------|--------------------------------------------------|
A|--------------------------------------------------|--------------------------------------------------|
E|--------------------------------------------------|--------------------------------------------------|
 |
 |
e|---13-p8-----8-13-p8h13-8-----8-13-p8h13-p8-----8-|--15p10----10-15p10----10-18p13----13-18p13----13-|
B|---------10---------------10----------------10----|--------12----------12----------15----------15----|
G|--------------------------------------------------|--------------------------------------------------|
D|--------------------------------------------------|--------------------------------------------------|
A|--------------------------------------------------|--------------------------------------------------|
E|--------------------------------------------------|--------------------------------------------------|


[Bridge 2]
  James                
e|-------------------------|--------------------------------|
B|-------------------------|--------------------------------|
G|-------------------------|--------------------------------|
D|--9--8--7-----5-----4----|----------5--------------5------|
A|--7--6--5-----3-----2--5-|----------5--------------5------|
E|-----------6-----4-----3-|--0-0-0-0----0-0-0-0-0-0----0-0-|
 |           PM    PM         PM....|    PM........|    PM|
 |
 |Kirk
e|-12---12---12------------|--------------------------------|
B|-15b1715b1715b7----------|--------------------------------|
G|-------------------------|--------------------------------|
D|-------------------------|----------5--------------5------|
A|-------------------------|----------5--------------5------|
E|-------------------------|--0-0-0-0----0-0-0-0-0-0----0-0-|
             PM    PM         PM....|    PM........|    PM|

Guitar 1 + 2
e| |-------------------------|--------------------------------||
B| *-------------------------|--------------------------------*|
G|3|-------------------------|--------------------------------||
D|x|--9--8--7-----5-----4----|----------5--------------5------||
A| *--7--6--5-----3-----2--5-|----------5--------------5------*|
E| |-----------6-----4-----3-|--0-0-0-0----0-0-0-0-0-0----0-0-||
               PM    PM         PM....|    PM........|    PM|


[Verse 4]
e|--------------------------------|--------------------------------|
B|--------------------------------|--------------------------------|
G|----------5--------------5------|----------4--------------4------|
D|----------5--------------5------|----------4--------------4------|
A|--3-3-3-3----3-3-3-3-3-3----3-3-|--2-2-2-2----2-2-2-2-2-2----2-2-|
E|--------------------------------|--------------------------------|
    PM....|    PM........|    PM...........|    PM........|    PM|
           Someone   help me            Oh  please God help me

e|--------------------------------|--------------------------------|
B|--------------------------------|--------------------------------|
G|----------3--------------3------|----------2--------------2------|
D|----------3--------------3------|----------2--------------2------|
A|--1-1-1-1----1-1-1-1-1-1----1-1-|--0-0-0-0----0-0-0-0-0-0----3-3-|
E|--------------------------------|----------------------------1-1-|
    PM....|    PM........|    PM...........|    PM........|    PM|
      They'retryingtotake it all    a-  -way

e|--------------------------------|--------------------------------|
B|--------------------------------|--------------------------------|
G|--------------------------------|--------------------------------|
D|----------3--------------3------|----------5--------------8------|
A|----------3--------------3------|----------5--------------8------|
E|--1-1-1-1----1-1-1-1-1-1----1-1-|--3-3-3-3----3-3-6-6-6-6----6-6-|
    PM....|    PM........|    PM...........|    PM........|    PM|
   I                     don't      want           to         die

[Bridge 2]
e| |-------------------------|--------------------------------||
B| *-------------------------|--------------------------------*|
G|3|-------------------------|--------------------------------||
D|x|--9--8--7-----5-----4----|----------5--------------5------||
A| *--7--6--5-----3-----2--5-|----------5--------------5------*|
E| |-----------6-----4-----3-|--0-0-0-0----0-0-0-0-0-0----0-0-||
               PM    PM         PM....|    PM........|    PM|

e| |--------------| |-------------------|------------------|
B| |--------------| |-------------------|------------------|
G|2|--------------|4|-------------------|------------------|
D|/|--9--8--7-----|/|--5----------------|------------------|
A|4|--7--6--5-----|4|--3----------------|------------------|
E| |-----------6--| |-------------------|------------------|
                      LR..................................

e|-------------------|-------------------|
B|-------------------|-------------------|
G|-------------------|-------------------|
D|-------------------|-----------2-/s-7--|
A|-------------------|-----------2-/s-7--|
E|-------------------|-------------------|
  ...|

Main Riff
e|  |------------------------------||------------------------------|
B|  *------------------------------*|------------------------------|
G|11|------------------------------||------------------------------|
D|x |------------------------------||------------------------------|
A|  *--7/8--------7/8--------------*|--7/8--------7/8-------10--9--|
E|  |--5/6--0--0--5/6--0--0--0--0--||--5/6--0--0--5/6--0--0--8--7--|
            PM.|       PM.......|           PM.|       PM.|

e| |------------------------------|
B| |-------R----------------------|
G|3|-------E----------------------|
D|/|-------S----------------------|
A|4|----8--T----------------10-9--|
E| |----6-------------------8--7--|

[Verse 5]
e| ||--------------------------------|--------------------------------|
B| |*--------------------------------|--------------------------------|
G|4||--------------------------------|--------------------------------|
D|/||--------------------------------|--------------------------------|
A|4|*--7/8---------7/8---------------|--7/8---------7/8---------------|
E| ||--5/6---0--0--5/6---0--0--0--0--|--5/6---0--0--5/6---0--0--0--0--|
             PM..|       PM.......|           PM.|        PM.......|
              Time    moving slow            Theminutes seemlikehours
              How     true is this?        Justgetit  o-ver with

e|--------------------------------|--------------------------------||
B|--------------------------------|--------------------------------*|
G|--------------------------------|--------------------------------||
D|--------------------------------|--------------------------------||
A|--7/8---------7/8---- ----------|--7/8---------7/8---------10-9--*|
E|--5/6---0--0--5/6---0--0--0--0--|--5/6---0--0--5/6---0--0--8--7--||
          PM.|        PM.......|           PM.|        PM.|

            The final   curtaincallI         see.
            Ifthisis true,just let it        be.

Pre Chorus
e| ||------------------------------||
B| |*------------------------------*|
G|4||------------------------------||
D|x||------------------------------||
A| |*--2h4--------2h4--------------*|
E| ||--2----2--2--2----2--2--2--2--||
            PM.|       PM.......|
              Wa-    -kened by
      hor--rid  scream
        Freedfromthisfrighteningdream


[Chorus]
e|----------------------|-------------------------|----------------------|-------------------------------|
B|----------------------|-------------------------|----------------------|-------------------------------|
G|----------------------|-------------------------|----------------------|-------------------------------|
D|--6------5--4------6--|--2--2--2--2--2--2--2--2-|--6------5--4------6--|--2--2--2--2--2--2-------------|
A|--4------3--2------4--|--0--0--0--0--0--0--0--0-|--4------3--2------4--|--0--0--0--0--0--0--0-h2b4r2~~-|
E|----------------------|-------------------------|----------------------|-------------------------------|
                           PM--.................|                           PM.............|
  Flash   be-fore   my   eyes!                      Now    it'stime  to   die!

e||----------------------------||
B|*----------------------------*|
G||----------------------------||
D||----------------------------||
A|*--2h4-------2h4-------------*|
E||--2---2--2--2---2--2--2--2--||
         PM.|    PM.........|

e|----------------------|-------------------------|----------------------|-----------------------------|
B|----------------------|-------------------------|----------------------|-----------------------------|
G|----------------------|-------------------------|----------------------|-----------------------------|
D|--6------5--4------6--|--2--2--2--2--2--2--2--2-|--6------5--4------6--|--2----2----2--2--2--2--2--2-|
A|--4------3--2------4--|--0--0--0--0--0--0--0--0-|--4------3--2------4--|--0----0----0--0--0--0--0--0-|
E|----------------------|-------------------------|----------------------|-----------------------------|
                           PM...................|                           PM.......................|
  Bur-   -ningin    my    brain,                   I      can feel   the   fla--ame.


[Bridge 1]
e| |-------------------------||
B| *-------------------------*|
G|4|-------------------------||
D|x|----------------2-----5--||
A| *---4----2-------0--4--3--*|
E| |---2----0----2-----2-----||
                 PM
[Outro]
e||-------------------------|-------------------------|-------------------------|-------------------------||
B|*-------------------------|-------------------------|-------------------------|-------------------------*|
G||-------------------------|-------------------------|-------------------------|-------------------------||
D||----------------2-----5--|-------------------------|----------------2--------|-------------------------||
A|*---4----2-------0--4--3--|-------------------------|---4----2-------0--4--2--|-------------------------*|
E||---2----0----2-----2-----|-------------------------|---2----0----2-----2--0--|-------------------------||
                PM       LR........................|                PM       LR........................|

e||-------------------------|---------------------------|-------------------------|-------------------------||
B|*-------------------------|---------------------------|-------------------------|-------------------------*|
G||-------------------------|---------------------------|-------------------------|-------------------------||
D||----------------2-----5--|----X-X-5--X-X-5--X-X-5s4--|----------------2--------|-------------------------||
A|*---4----2-------0--4--3--|----X-X-5--X-X-5--X-X-5s4--|---4----2-------0--4--2--|-------------------------*|
E||---2----0----2-----2-----|---------------------------|---2----0----2-----2--0--|---------0-0-0-0-0-0-0-0-||
                PM                                                    PM

Harmony 4
  James                       
e|-----------------------------|-----------------------------|-----------------------------|
B|-----------------------------|-----------------------------|-----------------------------|
G|-----11--12~~~---------------|-----------------------------|-----------------------------|
D|-------------------12--14~~~-|-----------------------------|-----------------------------|
A|-----------------------------|-----12--14~~~---------------|-----------------------------|
E|--0-------------0------------|--0-------------0--10--12~~~-|--(12)-----------------------|
 |  PM            PM              PM            PM      (Echo on last note)
 |
 |Kirk
e|-----------------------------|-----------------------------|-----------------------------|
B|-----------------------------|-----------------------------|-----------------------------|
G|-----16--17~~~-----14--16~~~-|-----------------------------|-----------------------------|
D|-----------------------------|-----14--16~~~-----17--14~~~-|--(14)-----------------------|
A|-----------------------------|-----------------------------|-----------------------------|
E|--0-------------0------------|--0-------------0------------|-----------------------------|

Suggest correction
Give kudos to tab author, rate the tab!
1 2 3 4 5
comments
print report bad tab
guest
You may want to rate the tab now too:
select rating
Wanna post a correction for this tab? Suggest correction