Oops, an error
Loading. Please wait.

Run To The Hills Bass Tab

2,306 views 1 this week
3 commentsread comments
1 2 3 4 5
x 7
add to favorites
launch autoscroll
font size
0
reset
guitar tuner
Autoscroll
slow
fast
+/-
esc
set tempo
stop
Help us to improve Ultimate-Guitar.com Take our survey!
×
Bass tablature for
Run to the Hills
written by Iron Maiden
performed on Garage Days (out of tune)
By Metallica

|--------------------------------------------------------|
|--------------------------------------------------------|
|-x-9--9---7----x-7--7---9-----x-5--5---7----x-0--0---2--|
|--------------------------------------------------------|
                                              
              /---------------------------------------|--------| 
             /
you can do this...or you can do what jason actually does...
he just does half muted notes, really high, sliding down... 
Suggest correction
comments
print report bad tab
3 comments total.
-1 reply
kill_all_emos 31 Apr 25, 2006 03:51 PM

the end bit is wrong, the tab should go
------------------------------------
------------------------------------
--9--9--7--7--7--9--5--5--7---------
-----------------------------5--5--7

+1 reply
saturns_bassman 789 Jul 11, 2006 10:12 AM

this tab is nothing like the one at the end of green hell

+2 reply
hiii 10 May 28, 2008 10:22 PM

" kill_all_emos:| vote up vote down

the end bit is wrong, the tab should go
------------------------------------
------------------------------------
--9--9--7--7--7--9--5--5--7---------
-----------------------------5--5--7 "


if your bass is tuned right then its the SAME THING

guest
You may want to rate the tab now too:
select rating
Wanna post a correction for this tab? Suggest correction