Oops, an error
Loading. Please wait.

Sad But True Tab

version 1
version 1

Solo

Whole song

25,116 views 39 this week
no commentswrite comment
1 2 3 4 5
excellent!
x 7
add to favorites
launch autoscroll
font size
0
reset
how to read this tab
guitar tuner
Tab Pro tools
  • play this tab
  • loop segment
  • change instrument
  • show fretboard
  • metronome
×
Best way to learn
"Sad But True"
Autoscroll
slow
fast
+/-
esc
set tempo
stop
Contributor
Tuning
D A D G B E
|-------------------------------------------------------------------|
|-2/12----------------------------------------------12--12--12------|
|-3/13----------------------------------------------12--12--12------|
|-----------------------------------14\-----12--14------------------|
|-------------------------------------------------------------------|
|-------------------------------------------------------------------|

|----------------------------------------------------------------|
|----------------12----------------------------------------------|
|----------------12----------------------------------------------|
|14------------------14--12------14-12-----------\-------12--14--|
|----------------------------14--**------------------14----------|
|----------------------------------------------------------------|

|----------------------------------------------------------------|
|12--------------------------------------------------------------|
|12------------------------------9p7p6---------------------------|
|----14--12------14----------------------9---7---9-----------\---|
|------------14--**------------------------------**--------------|
|----------------------------------------------------------------|

|----------------------------------------------------------------|
|----------------------------------------------------------------|
|4-h-5p4-----4---------------------------------------------------|
|--------7-------7---5---4-----------------------9---s---5---s---|
|----------------------------5---7-------------------------------|
|--------------------------------**------------------------------|

|--------------------------------------------------------------------------|
|----12--15p12-15p12----12 12-15p12----12h15p12--12h15p12------------------|
|14^-----------------14^-----------14^---------14--------14-12-------------|
|--------------------------------------------------------------14--14------|
|--------------------------------------------------------------------------|
|--------------------------------------------------------------------------|

|----------------------------------------------------------------|
|--------12------------------------------------------------------|
|--------12------14--12------------------------------------------|
|12-h14------14----------14--12----------------------------------|
|--------------------------------14--12-s10--12--10--------------|
|----------------------------------------------------------------|

|----------------------------------------------------------------|
|14^-r---14^-r-------------------14^-r-----------12--------------|
|14^-r---14^-r---14^r12--12--14--14^-r---12------12----------12--|
|----------------------14--------------------14----------14------|
|----------------------------------------------------------------|
|----------------------------------------------------------------|

|----------------------------------------------------------------|
|14^-r---12--14^-r---12--14^-r---12--14^-r-----------------------|
|14^-r---12--14^-r---12--14^-r---12--14^-r---12--14^-------------|
|------------------------------------------------------------12--|
|----------------------------------------------------------------|
|----------------------------------------------------------------|


|------------------------------------------------------------------------|
|------------------------------------------------12-12-13-12-13-15-15-15-|
|---------------------------12----12-14-12-14-14^------------------------|
|---------12----12-14-12-14----14----------------------------------------|
|14-12-14----14----------------------------------------------------------|
|------------------------------------------------------------------------|


|--12h15p12--12--12-12-15p12-12-12-12-12-12-15p12--------------------------|
|--------15-------------------------------------15p13--13-15p13----13--15--|
|----------------------------------------------------14--------14----------|
|--------------------------------------------------------------------------|
|--------------------------------------------------------------------------|
|--------------------------------------------------------------------------|

|-15------15----------|
|-15^-----15^---------|
|---------------------|
|---------------------|
|---------------------|
|---------------------|




solo 2

|----------------------------------------------------------------|
|----------------------------------------------------------------|
|----------------------------------------------------------------|
|2-------2-p-0---2-------2-p-0---2-------------------------------|
|----------------------------------------------------------------|
|----------------------------------------------------------------|


|-------0------------0-------------------------------------------|
|-----------3^-----------3---0-----------------------------------|
|2^------------------------------2^rp0---------------------------|
|----------------------------------------2-----------------------|
|----------------------------------------------------------------|
|----------------------------------------------------------------|
                                                                


|----------------------------------------------------------------|
|----------------------------------------------------------------|
|4^------4^------4^------4^------4^--------------0---------------|
|-----Semi - harmonics-------------------------------2-----------|
|----------------------------------------------------------------|
|----------------------------------------------------------------|


|----------------------------------------------------------------|
|--------12--12--x---12--12------12--12--12--12--x---12--12--12--|
|--------12--12--x---12--12------12--12--12--12--x---12--12--12--|
|-/14------------------------14----------------------------------|
|----------------------------------------------------------------|
|----------------------------------------------------------------|


|--------12----------12------12----------------------------------|
|----12------15^---------15^-----15^-\---------------------------|
|14^-------------------------------------------------------------|
|----------------------------------------------------------------|
|----------------------------------------------------------------|
|----------------------------------------------------------------|
comments
print report bad tab
I want to post or [tab]
guest
You may want to rate the tab now too:
select rating
Please do not post tabs as comments. Select "correction" instead!