Oops, an error
Loading. Please wait.
We have an official Seek And Destroy tab made by UG professional guitarists. Check out the tab »
×

Seek And Destroy Bass

version 3
version 3

Whole song

  • Based on the bass master track: http://www.youtube.com/watch?v=pXZh-v5ZlKA.
76,178 views 93 this week
4 commentsread comments
1 2 3 4 5
x 39
add to favorites
launch autoscroll
font size
0
reset
guitar tuner
backing track
0:00
0:00
Autoscroll
slow
fast
+/-
esc
set tempo
stop
Author
Tuning
[Intro]

G|-------------------------------|
D|-----------------------777-777-|
A|-0-0-0-0-0-0-0-0-0-0-0---------|
E|-------------------------------|

G|---------------------------------5---|
D|-----5h7------5h7-----------5------7-|
A|-0-0-----0-00-----0--0-8-77---77-----|
E|-------------------------------------|

G|-------------------------------5---|
D|---5h7------5h7-----------5------7-|
A|-0-----0-00-----0--0-8-77---77-----|
E|-----------------------------------|

G|------------------------------5---|
D|---5h7-----5h7-----------5------7-|
A|-0-----0-0-----0--0-8-77---77-----|
E|----------------------------------|

G|-------------------------------5---|
D|---5h7------5h7-----------5------7-|
A|-0-----0-00-----0--0-8-77---77-----|
E|-----------------------------------|

G|----------|
D|----------|
A|----------|
E|-0--12\-0-|

G|--------------------------------------------|
D|--------------------------------------------|
A|------------7-7-7-7-7-7-7-7---------7-5-----|
E|-0--0--0--0-----------------0-0-0-0-----7-6-|

G|------------------|-----------------|
D|------------------|-----------------| x4
A|------------------|---------7-5-----|
E|-0-0-0-0-3-5-3-5\-|-0-0-0-0-----7-6-|

G|---------------------------------|
D|-----------------------------5---|
A|-------------------------------7-|
E|-0-0-0-0-0-0-0-0-0-0-0-0-7-6-----|

G|---------------------------------|
D|---------------------------------|
A|---------------------------------|
E|-0-0-0-0-0-0-0-0-0-0-0-0-7-6-3-0-|

G|---------------------------------|
D|-----------------------------5---|
A|-----5h7-----------------------7-|
E|-0-0-----0-0-0-0-0-0-0-0-7-6-----|

G|---------------------------------|
D|---------------------------------|
A|-----5h7-----5h7-----5h7---------|
E|-0-0-----0-0-----0-0-----7-6-3-0-|

[Verse 1]

G|---------------------------------|
D|-----------------------------5---|
A|-------------------------------7-|
E|-0-0-0-0-0-0-0-0-0-0-0-0-7-6-----|

G|---------------------------------|
D|---------------------------------|
A|---------------------------------|
E|-0-0-0-0-0-0-0-0-0-0-0-0-7-6-3-0-|

G|---------------------------------|
D|-----------------------------5---|
A|-----5h7-----------------------7-|
E|-0-0-----0-0-0-0-0-0-0-0-7-6-----|

G|---------------------------------|
D|---------------------------------|
A|-----5h7-----5h7-----5h7---------|
E|-0-0-----0-0-----0-0-----7-6-3-0-|

[Pre-Chorus]

G|-------------------------------|---------------7-5-------------|
D|-----------------------5-55777-|-------------------7-6-5-------|
A|-0-000-0-3-5-3-0-0-0-77--------|-0-0-0-0-3-5-3-----------7-6-5-|
E|-------------------------------|-------------------------------|

G|---------------------------------|---------------9-7---7---------|
D|-------------------------5-55777-|-------------------9---9-8-7-5-|
A|-0-000-0-3-5-3-0-000-0-77--------|-0-000-0-3-5-3-----------------|
E|---------------------------------|-------------------------------|
 |
G|-----------------|
D|-----------------|
A|-7-5---5---------|
E|-----7---7-6-5-3-|

                                                       Wah
                                                  |---effect---|
G|--------------------------------------------------------------|
D|--------------------------------------------------------------|
A|--------------------------------------------------------------|
E|-3--3-3-3-3-3-0-3-2--2--1--1/-0-0-0-0-0-0-0-0-0-0-0-0-0-0-0-0-|

G|----------------------------------------------------------------|
D|----------------------------------------------------------------|
A|----------------------------------------------5h7-5-------------|
E|-3--3-3-3-3-3-0-3-2--2--1--1/-0-0-0-0-0-0-0-0-------7-6-5-7-6-5-|

G|-------------------------------------------------------------|
D|-------------------------------------------------------------|
A|-------------------------------------------------------------|
E|-3--3-3-3-3-3-0-3-2--2--1--1-0-0-0-0-0-0-0-0-0-0-0-0-0-0-0-0-|

G|------------------------------|
D|------------------------------|
A|------------------------------|
E|-3--3-3-3-3-3-0-3-2--2--1--1/-|

G|------------------|-----------------|
D|------------------|-----------------|
A|------------------|---------7-5-----|
E|-0-0-0-0-3-5-3-5\-|-0-0-0-0-----7-6-|

G|------------------|-----------------|
D|------------------|-----------------|
A|------------------|---------0-5-6-7-|
E|-0-0-0-0-3-5-3-5\-|-0-5-6-7---------|

G|------------------|-----------------|
D|------------------|-----------------| x2
A|------------------|---------7-5-----|
E|-0-0-0-0-3-5-3-5\-|-0-0-0-0-----7-6-|

[Verse 2]

G|---------------------------------|
D|-----------------------------5---|
A|-------------------------------7-|
E|-0-0-0-0-0-0-0-0-0-0-0-0-7-6-----|

G|---------------------------------|
D|---------------------------------|
A|---------------------------------|
E|-0-0-0-0-0-0-0-0-0-0-0-0-7-6-3-0-|

G|---------------------------------|
D|-----------------------------5---|
A|-----5h7-----------7-----------7-|
E|-0-0-----0-0-0-0-0-0-0-0-7-6-----|

G|---------------------------------|
D|---------------------------------|
A|-----5h7---7-5h7---7-5h7---------|
E|-0-0-----0-0-----0-0-----7-6-3-0-|

[Pre-Chorus]

G|---------------------------------|---------------7-5-------------|
D|-------------------------5-55777-|-------------------7-6-5-------|
A|-0-000-0-3-5-3-0-000-0-77--------|-0-000-0-3-5-3-----------7-6-5-|
E|---------------------------------|-------------------------------|

  2:36
G|---------------------------------|---------------9-7---7---------|
D|-------------------------5-55777-|-------------------9---9-8-7-5-|
A|-0-000-0-3-5-3-0-000-0-77--------|-0-000-0-3-5-3-----------------|
E|---------------------------------|-------------------------------|
 |
G|-----------------|
D|-----------------|
A|-7-5---5---------|
E|-----7---7-6-5-3-|

[Chorus]

                                                   Wah
                                              |---effect---|
G|----------------------------------------------------------|
D|----------------------------------------------------------|
A|----------------------------------------------------------|
E|-3--3-3-3-0-3-2--2--1--1/-0-0-0-0-0-0-0-0-0-0-0-0-0-0-0-0-|

G|-----------------------------------------------------------------|
D|-----------------------------------------------------------------|
A|-----------------------------------------------5h7-5-------------|
E|-3--3-3-3-3-3-0-3-2--2--1-1-1/-0-0-0-0-0-0-0-0-------7-6-5-7-6-5-|

G|--------------------------------------------------------------------|
D|--------------------------------------------------------------------|
A|------------------------------------------------------5---77-7-77-7-|
E|-3--3-3-3-3-3-0-3-2--2--1-1-1-1-0-0-0-0-0-0-0-0-0-5h7---7-----------|

G|--------------------------------|
D|--------------------------------|
A|--------------------------------|
E|-3--3-3-3-3-3-0-3-2--2--1--1--0-|

[Interlude]

G|-----------------|
D|-------3-2-0-----|
A|-3-2-0-------3-0-|
E|-----------------|

G|---------------|---------------|---------------|-----------------|
D|-------7-----7-|-------7-----7-|-------7-----7-|-------3-2-0-----| x2
A|-0-0-0---0-0---|-0-0-0---0-0---|-0-0-0---0-0---|-3-2-0-------3-0-|
E|---------------|---------------|---------------|-----------------|

G|-----------------|
D|-----------------|
A|-----------------|
E|-3-3-333-2-2-1-1-|

[Guitar Solo]

G|-------------------------------------------------|
D|-------------------------------------------------| x3
A|-----------7-----7---7-7-----7-7-----------------|
E|-0-0-0-0-0---0-0---0-----0-0-----3-3-333-2-2-1-1-|

G|---------------------------------------------------------------|
D|---------------------------------------------------------------| x4
A|-------7-----7---5-----7-----7---5-----7-----7-------3-2-0-----|
E|-0-0-0---0-0---0---0-0---0-0---0---0-0---0-0---3-2-0-------3-2-|

G|----------------------|
D|----------------------|
A|-------3-2-0-----0--0-|
E|-3-2-0-------3-2------|

G|-------|
D|-------| x2
A|-0-0-0-|
E|-------|

G|-----------------------------------|
D|-------------------777---7---777---|
A|-0-0-0-0-0-0-0-0-0-----0---0-----0-|
E|-----------------------------------|

G|-------------------------------5---|
D|---5h7------5h7-----------5------7-| x4
A|-0-----0-00-----0--0-8-77---77-----|
E|-----------------------------------|

G|--------|
D|--------|
A|--------|
E|-0--12\-|

G|------------------|-----------------|
D|------------------|-----------------|
A|------------------|---------7-5-----|
E|-0-0-0-0-3-5-3-5\-|-0-0-0-0-----7-6-|

G|------------------|-----------------|
D|------------------|-----------------|
A|------------------|---------0-5-6-7-|
E|-0-0-0-0-3-5-3-5\-|-0-5-6-7---------|

G|------------------|-----------------|
D|------------------|-----------------|
A|------------------|---------7-5-----|
E|-0-0-0-0-3-5-3-5\-|-0-0-0-0-----7-6-|

G|------------------|-------------------|
D|------------------|-------------------|
A|------------------|-----5-555h7p5-----|
E|-0-0-0-0-3-5-3-5\-|-0-7-----------7-6-|

[Verse 3]

G|---------------------------------|
D|-----------------------------5---|
A|-------------------------------7-|
E|-0-0-0-0-0-0-0-0-0-0-0-0-7-6-----|

G|---------------------------------|
D|---------------------------------|
A|---------------------------------|
E|-0-0-0-0-0-0-0-0-0-0-0-0-7-6-3-0-|

G|---------------------------------|
D|-----------------------------5---|
A|-----5h7-----------------------7-|
E|-0-0-----0-0-0-0-0-0-0-0-7-6-----|

G|---------------------------------|
D|---------------------------------|
A|-----5h7-----5h7-----5h7---------|
E|-0-0-----0-0-----0-0-----7-6-3-0-|

[Pre-Chorus]

G|---------------------------------|---------------7-5-------------|
D|-------------------------5-55777-|-------------------7-6-5-------|
A|-0-000-0-3-5-3-0-000-0-77--------|-0-000-0-3-5-3-----------7-6-5-|
E|---------------------------------|-------------------------------|

G|---------------------------------|---------------9-7---7---------|
D|-------------------------5-55777-|-------------------9---9-8-7-5-|
A|-0-000-0-3-5-3-0-000-0-77--------|-0-000-0-3-5-3-----------------|
E|---------------------------------|-------------------------------|
 |
G|-----------------|
D|-----------------|
A|-7-5---5---------|
E|-----7---7-6-5-3-|

[Chorus]

                                                       Wah
                                                  |---effect---|
G|--------------------------------------------------------------|
D|--------------------------------------------------------------|
A|--------------------------------------------------------------|
E|-3--3-3-3-3-3-0-3-2--2--1--1/-0-0-0-0-0-0-0-0-0-0-0-0-0-0-0-0-|

G|----------------------------------------------------------------|
D|----------------------------------------------------------------|
A|----------------------------------------------5h7-5-------------|
E|-3--3-3-3-3-3-0-3-2--2--1--1/-0-0-0-0-0-0-0-0-------7-6-5-7-6-5-|

G|--------------------------------------------------------------------|
D|--------------------------------------------------------------------|
A|------------------------------------------------------5---77-7-77-7-|
E|-3--3-3-3-3-3-0-3-2--2--1-1-1-1-0-0-0-0-0-0-0-0-0-5h7---7-----------|

G|------------------------------------------------------------|
D|------------------------------------------------------------|
A|------------------------------------------------------------|
E|-3--3-3-3-3-3-0-3-2--2--1--1/-0-0-0-0-0-0-0-0-0-0-0-0-0-0-0-|

[Outro]

G|---------------------------------|
D|---------------------------------|
A|---------------------------------|
E|-3-2-0-0-2-1-0-0-1-0-0-0-0-0-0-0-|
 |                                         x3
G|---------------------------------------|
D|---------------------------------------|
A|-----------5-----5-5h7-5h7------5h75h7-|
E|-3-2-0-0-2---0-0-----------0-0---------|

G|---------------------------------|
D|---------------------------------|
A|---------------------------------|
E|-3-2-0-0-2-1-0-0-1-0-0-0-0-0-0-0-|
 |
G|-------------------------------------|
D|-------------------------------------|
A|-----------5-----5-5h7-5h7p5--5h7p5--|
E|-3-2-0-0-2---0-0------------7------7-|

G|---------------------------------|
D|---------------------------------| x4
A|---------------------------------|
E|-0-0-0-0-0-3-0-0-2-0-0-3-0-0-5-3-|

G|---------------------------------|
D|---------------------------------| x4
A|---------------------------------|
E|-0-000-0-0-3-0-0-2-0-0-3-0-0-5-3-|

G|------------------------|
D|------------------------|
A|------------------------|
E|-0-000--0--0--0-0-0-0-0-|


************************************

| h  Hammer-on
| p  Pull-off
| /  Slide up
| \  Slide down

************************************
Suggest correction
comments
print report bad tab
4 comments total. Showing first comments.
0 reply
jk41 732 Feb 23, 2011 05:18 PM

pretty good tab except for 2 things i found, in the intro riff theres no double es and as
-------------5-----------
---------5-----7---------
-0-0-8-7---7-------------
-------------------------
and pre chorus starts on c
A--3-0-0-0-3-5-3--------------

0 reply
jk41 732 Mar 01, 2011 01:11 AM

me again buddy, hate to tell you but that aint cliff playin, its just somebodys interpretation, which isnt right, i used to have the "official" tab book and i also can play it on guitar, i remembered something else thats missing, a fill in the pre chorus
G--------5h7-5---5-----
D--------------7-------
A-3-0-0-0--------------
listen really hard to kill em all and youll hear the differences

0 reply
mrtamburineman 10 Aug 25, 2013 05:26 AM

Hey dude first of all I want to thank you for this great tabs there is nothing wrong with it it just sounds nicer when you play the e in the outtro at 6:17 in the 7 st fret in on the A string. Sounds just a bit nicer.

guest
You may want to rate the tab now too:
select rating
Wanna post a correction for this tab? Suggest correction