Oops, an error
Loading. Please wait.

Seek And Destroy Tab

version 4
16,967 views 18 this week
11 commentsread comments
1 2 3 4 5
accurate
x 9
add to favorites
launch autoscroll
font size
0
reset
how to read this tab
guitar tuner
Tab Pro tools
  • play this tab
  • loop segment
  • change instrument
  • show fretboard
  • metronome
×
Best way to learn
"Seek And Destroy"
Autoscroll
slow
fast
+/-
esc
set tempo
stop
----------------------------------------------------------------------------
                          Seek And Destroy - Metallica
----------------------------------------------------------------------------
Tabbed by: /\/|OONTALLIC|-\

Email:Addiemoon1988@hotmail.com

Tuning: Standard

| /  slide up
| \  slide down
| h  hammer-on
| p  pull-off
| R  Release Bend
| ~  vibrato
| +  harmonic
| x  Mute note
| .  Palm Mute
| *\ Pick Slide Down
| */ Pick Slide Up

Order

Riff A (x8)
Riff B prt1
Riff B prt 2 (x4)
Riff C (x4)
Riff D
Riff B prt 1 (x2)
Riff E (x4)
Riff A (x4)
Riff B prt 2 (x4)
Riff C (x4)
Riff D
Riff B prt 1 (x2)
Riff E (x4)
Riff F
(Drum Fill)
Riff G (x4)
Solo With Riff E (x3) then 1st 2 Bars of E, then Riff H (x3)
Riff A (x4)
Riff B prt 1
Riff B prt 2 (x4)
Riff C (x4)
Riff D
Riff E (x4)
Riff I (x4)
Riff J (x8)
Riff B prt 1 (x3)
Riff K

============================================================================

Riff A

e|---------------------------------|
B|---------------------------------|
G|-----7h8-7-------------------5---|
D|-------------7h8-7-------5-----7-|
A|-0-0-------0-------0-8-7---7-----|
E|---------------------------------|
   . .       .       . . .   .

Riff B Prt 1        Riff B prt 2

e|-----------------|---------------------------------|
B|-----------------|---------------------------------|
G|-9-7---7---------|---------------------------------|
D|-----9---9-8-7\5-|---------5-7-5-7---------7-5-----|
A|-----------------|---------5-7-5-7-------------7---|
E|-----------------|-0-0-0-0---------0-0-0-0-------6-|
                     . . . .         . . . .

Riff C

e|---------------------------------|
B|---------------------------------|
G|---------------------------------|
D|---------------------------------|
A|-----------------------------5---|
E|-0-0-0-0-0-0-0-0-0-0-0-0-7-6---7-|
   . . . . . . . . . . . . . .

Riff D (pre chorus)

e|-------------------------------------------|-----------------|
B|-------------------------------------------|-----------------|
G|---------5-7-5---------5-7-5---------5-7-5-|-7-5-------------|
D|---------5-7-5---------5-7-5---------5-7-5-|-----7-6-5-------|
A|-0-0-0-0-------0-0-0-0-------0-0-0-0-------|-----------7-6-5-|
E|-------------------------------------------|-----------------|
   . . . .       . . . .       . . . .

e|-------------------------------------------|
B|-------------------------------------------|
G|---------5-7-5---------5-7-5---------5-7-5-|
D|---------5-7-5---------5-7-5---------5-7-5-|
A|-0-0-0-0-------0-0-0-0-------0-0-0-0-------|
E|-------------------------------------------|
   . . . .       . . . .       . . . . 

Riff E         

  Searching...

e|-------------|-------------------------------|
B|-------------|-------------------------------|
G|-------------|-------------------------------|
D|-12--11-10-9-|-------------------------------|
A|-10--9--8--7-|-------------------------------|
E|-----------0-|-0-0-0-0-0-0-0-0-0-0-0-0-0-0-0-|
                 . . . . . . . . . . . . . . .

Riff F

e|-------|
B|-------|
G|-------|
D|-----9-|
A|-----7-|
E|-0-0-0-|
   . .

Riff G

e|----------------------------------------------------------------|
B|----------------------------------------------------------------|
G|-----------------5---------------4------------------------------|
D|-5-7---7-----7---5-----7-----7---4-----7-----7\-------3-2-0-----|
A|-0-0-0---0-0---0---0-0---0-0---0---0-0---0-0----3-2-0-------3-0-|
E|----------------------------------------------------------------|
       .   . .   .   . .   . .   .   . .   . .    . . .

Riff H

e|----------------------------------------------------------------|
B|----------------------------------------------------------------|
G|----------------------------------------------------------------|
D|-----------------5---------------4------------------------------|
A|-5h7---7-----7---5-----7-----7---4-----7-----7\-------3-2-0-----|
E|-----0---0-0---0---0-0---0-0---0---0-0---0-0----3-2-0-------3-0-|
       .   . .   .   . .   . .   .   . .   . .    . . .

Solo With Riff E Underneath (3 times)

e|-----------|-------12-15p12----12-15p12-17p12-15p12----12-15p12-17p12-|
B|-----------|-12/15----------12----------------------15----------------|
G|-----------|----------------------------------------------------------|
D|-12-11-10-9|----------------------------------------------------------|
A|-10-9--8--7|----------------------------------------------------------|
E|-----------|----------------------------------------------------------|


e|-15p12----12----15---------|P
B|-------15----15----15b17~~-|A
G|---------------------------|U
D|---------------------------|S
A|---------------------------|E  For Riff E
E|---------------------------|


e|-7-7-10p7----7-7----------------------------------|P
B|----------12-----10p7-10p7------------------------|A
G|---------------------------9-7---7-9p(11)p9p7-----|U
D|-------------------------------9--------------9~~-|S
A|--------------------------------------------------|E For Riff E
E|--------------------------------------------------|

           

e|------|-17b19~~-------16-15-14---------------------------|
B|------|------------15----------15-14---------------------|
G|------|---------15-------------------16----15b17r15b16~~-|
D|-12-11|---------------------------------17---------------|
A|-10-9-|--------------------------------------------------|
E|------|--------------------------------------------------|

Main Solo Accompanied By The 1st Two Bars Of Riff E and All Of Riff H (3 Times)

e|-----20-20-23-20-18-22-19-19-21-2117-15-19-16-14-14-17-14-12-|
B|-/23---------------------------------------------------------|
G|-------------------------------------------------------------|
D|-------------------------------------------------------------|
A|-------------------------------------------------------------|
E|-------------------------------------------------------------|

e|-16-12-11-14-12\11-9\7-10\7----7-10p7------------------------------|
B|----------------------------10--------10-7-10p7-------7------------|
G|------------------------------------------------9-7-9---9-9b11r9p7-|
D|-------------------------------------------------------------------|
A|-------------------------------------------------------------------|
E|-------------------------------------------------------------------|


e|----------------------------------------------------------|
B|-9-7---7-----------------------------------------------12-|
G|-----9---------------------------7-9b11r9p7-9b11\---14----|
D|-------------------7-9p7---7h9-9-----------------\-/------|
A|---------------5/9-------9--------------------------------|
E|---------5-5-7--------------------------------------------|


e|-------12-------------------12-------------------12----------------15-----
B|-15b17----15p12----12-15b17----15p12-12-15-15b17----15p12-15-15b17----15--
G|----------------14--------------------------------------------------------
D|--------------------------------------------------------------------------
A|--------------------------------------------------------------------------
E|--------------------------------------------------------------------------


e|-12-15p12---------------------------------------------------------|
B|---------15-12----15-15p12----------------------------------------|
G|---------------14----------14-12----12-14p12----------------------|
D|---------------------------------14----------14-12----------------|
A|---------------------------------------------------14-12-------12-|
E|---------------------------------------------------------15-15----|
                                                              .. ..

e|----------------------------------------------------------------12----12-|
B|----------------------------------------------12----12-15-12-15----15----|
G|----------------------------12----12-14-12-14----14----------------------|
D|----------12----12-14-12-14----14----------------------------------------|
A|-14-12-14----14----------------------------------------------------------|
E|-------------------------------------------------------------------------|
   .. .. .. .. .. .. .. .. .. .. .. ..

e|-15p12-----------------------------------------------------------------|
B|-------15-12\11-12-15p12-----------------------------------------------|
G|-------------------------14-12b\0------------------------------------2-|
D|---------------------------------------------------------------------2-|
A|----------------------------------*\-------3-2-0-----------3-2-0-----0-|
E|-------------------------------------3-2-0-------3-2-3-2-0-------3-2---|


Riff I

e|-------------------------------------------------------------------------|
B|-------------------------------------------------------------------------|
G|-------------------------------------------------------------------------|
D|-12-11-----11-10-----10-9-------------12-11-----11-7-----7-9-------------|
A|-10-9------9--8------8--7-------------10-9------9--5-----5-7-------------|
E|-------0-0-------0-0------0-0-0-0-0-0-------0-0------0-0-----0-0-0-0-0-0-|
         . .       . .      . . . . . .       . .      . .     . . . . . .

Riff J

e|---------------------------------|
B|---------------------------------|
G|-----9---------------------------|
D|-----9-----5-----4-----5-----7\5-|
A|-----7-----5-----4-----5-----7\3-|
E|-0-0-0-0-0-3-0-0-2-0-0-3-0-0-5\3-|
   . .   . .   . .   . .   . .

Riff K

e|-----------|
B|-----------|
G|---------9-|
D|---------9-|
A|---------7-|
E|-0-0-0-0-0-|
   . . . .

| /  slide up
| \  slide down
| h  hammer-on
| p  pull-off
| ~  vibrato
| +  harmonic
| x  Mute note
| .  Palm Mute
| */ Pick Slide Up
| *\ Pick Slide Down
============================================================================
comments
print report bad tab
11 comments total. Showing first comments.
+1 reply
Kirkomelette wrote on August 24 2004, 12:00 am

missing some parts

-1 reply
JoeBoy779 wrote on December 18 2004, 12:00 am

M!

+1 reply
joe_sdmf wrote on July 13 2006, 10:37 am

not very good but i cant tab anyways lol

I want to post or [tab]
guest
You may want to rate the tab now too:
select rating
Please do not post tabs as comments. Select "correction" instead!