Oops, an error
Loading. Please wait.

So What Bass Tab

version 2
version 2

Whole song

Interactive

1,346 views 1 this week
1 commentread comment
1 2 3 4 5
1 last vote to show rating
add to favorites
launch autoscroll
font size
0
reset
guitar tuner
Autoscroll
slow
fast
+/-
esc
set tempo
stop
Help us to improve Ultimate-Guitar.com Take our survey!
×
Author
Difficulty
-------------------------------------------------------------------------------
                             So What - Metallica
-------------------------------------------------------------------------------
Tabbed by: MetallicaDMRTL
Tuning: EADG

SO FUCKING WHAT? hey guys heres a fun favorite off garage for ya!

|---------|
|---------|
|---------| fast pick
|-5//////-|

|------------|-----------|---------|-----------|
|------------|-----------|---------|-----------|
|------------|-----------|---------|-----------|
|--3h5-5-5-5-|-3h5-5-5-5-|-3h5-3h5-|-3h5-5-5-5-|

|-----------------|-----------------|-----------------|-----------------|
|*----------------|-----------------|-----------------|-----------------|
|*3h5-5-5-5-5-5-5-|-5-5-5-5-5-5-5-5-|-5-5-5-5-5-5-5-5-|-5-5-5-5-5-5-5-5-|
|-----------------|-----------------|-----------------|-----------------|

|------------|-----------|---------|-----------|
|------------|-----------|---------|----------*|
|------------|-----------|---------|----------*| x2
|--3h5-5-5-5-|-3h5-5-5-5-|-3h5-3h5-|-3h5-5-5-5-|

|-------------------------------|---------------------|
|-------------------------------|---------------------|
|--------------1--1-1-1-1-1-----|---------------------| x2
|-1--1-1-1-1-1------------------|-3h5-5-5-5-3h5-5-5-5-|

|---------|-----------|
|---------|-----------|
|---------|-----------|
|-3-5-3-5-|-3\5-5-5-5-|

|-----------------|-----------------|-----------------|-----------------|
|*----------------|-----------------|-----------------|-----------------|
|*3h5-5-5-5-5-5-5-|-5-5-5-5-5-5-5-5-|-5-5-5-5-5-5-5-5-|-5-5-5-5-5-5-5-5-|
|-----------------|-----------------|-----------------|-----------------|

|------------|-----------|---------|-----------|
|------------|-----------|---------|----------*|
|------------|-----------|---------|----------*| x2
|--3h5-5-5-5-|-3h5-5-5-5-|-3h5-3h5-|-3h5-5-5-5-|

|-------------------------------|---------------------|
|-------------------------------|---------------------|
|--------------1--1-1-1-1-1-----|---------------------| x2
|-1--1-1-1-1-1------------------|-3h5-5-5-5-3h5-5-5-5-|

|---------|-----------|
|---------|-----------|
|---------|-----------|
|-3-5-3-5-|-3\5-5-5-5-|

|-----------------|-----------------|-----------------|-----------------|
|*----------------|-----------------|-----------------|-----------------|
|*3h5-5-5-5-5-5-5-|-5-5-5-5-5-5-5-5-|-5-5-5-5-5-5-5-5-|-5-5-5-5-5-5-5-5-|
|-----------------|-----------------|-----------------|-----------------|

|------------|-----------|---------|-----------|
|------------|-----------|---------|----------*|
|------------|-----------|---------|----------*| x2
|--3h5-5-5-5-|-3h5-5-5-5-|-3h5-3h5-|-3h5-5-5-5-|

|-------------------------------|---------------------|
|-------------------------------|---------------------|
|--------------1--1-1-1-1-1-----|---------------------| x2
|-1--1-1-1-1-1------------------|-3h5-5-5-5-3h5-5-5-5-|

|---------|-----------|
|---------|-----------|
|---------|-----------|
|-3-5-3-5-|-3\5-5-5-5-|

solo
|-----------------|-----------------|-----------------|-----------------|
|-----------------|-----------------|-----------------|-----------------|
|-3h5-5-5-5-5-5-5-|-5-5-5-5-5-5-5-5-|-5-5-5-5-5-5-5-5-|-5-5-5-5-5-5-5-5-|
|-----------------|-----------------|-----------------|-----------------|

|------------|-----------|---------|-----------|
|------------|-----------|---------|-----------|
|------------|-----------|---------|-----------|
|--3h5-5-5-5-|-3h5-5-5-5-|-3h5-3h5-|-3h5-5-5-5-|

|-----------------|-----------------|-----------------|-------------------|  keep picking
|-----------------|-----------------|-----------------|-------------------| at same speed
|-3h5-5-5-5-5-5-5-|-5-5-5-5-5-5-5-5-|-5//////////////-|////////////////---|
|-----------------|-----------------|-----------------|-------------------|

|------------|-----------|---------|-----------|
|------------|-----------|---------|-----------|
|------------|-----------|---------|-----------|
|--3h5-5-5-5-|-3h5-5-5-5-|-3h5-3h5-|-3h5-5-5-5-|

|-------------------------------|---------------------|
|-------------------------------|---------------------|
|--------------1--1-1-1-1-1-----|---------------------| x2
|-1--1-1-1-1-1------------------|-3h5-5-5-5-3h5-5-5-5-|

|---------|-----------|
|---------|-----------|
|---------|-----------|
|-3-5-3-5-|-3\5-5-5-5-|

|-----------------|-----------------|-----------------|-----------------|
|*----------------|-----------------|-----------------|-----------------|
|*3h5-5-5-5-5-5-5-|-5-5-5-5-5-5-5-5-|-5-5-5-5-5-5-5-5-|-5-5-5-5-5-5-5-5-|
|-----------------|-----------------|-----------------|-----------------|

|------------|-----------|---------|-----------|
|------------|-----------|---------|----------*|
|------------|-----------|---------|----------*| x2
|--3h5-5-5-5-|-3h5-5-5-5-|-3h5-3h5-|-3h5-5-5-5-|

|-------------------------------|---------------------|
|-------------------------------|---------------------|
|--------------1--1-1-1-1-1-----|---------------------| x2
|-1--1-1-1-1-1------------------|-3h5-5-5-5-3h5-5-5-5-|

|---------|-----------|----|
|---------|-----------|----|
|---------|-----------|-7\-|
|-3-5-3-5-|-3\5-5-5-5-|-0--|

and thats so what, its easy and i can hear a few fill i didnt put but i mean there small 
and minor and u can always make up ur own, SO FUCKING WHAT?

MetallicaDMRTL

                          \m/Metallica\m/
Suggest correction
Give kudos to tab author, rate the tab!
1 2 3 4 5
comments
print report bad tab
1 comment total.
0 reply
annihilator66 10 May 01, 2014 10:51 AM

good///////////

guest
You may want to rate the tab now too:
select rating
Wanna post a correction for this tab? Suggest correction