Oops, an error
Loading. Please wait.

Spit Out The Bone Tab

version 2
version 2

Whole song

  • A first approach to the new metallica song. Complete tab of the song.
21,655 views 354 this week
6 commentsread comments
1 2 3 4 5
x 21
add to favorites
launch autoscroll
font size
0
reset
how to read this tab
guitar tuner
backing track
0:00
0:00
Autoscroll
slow
fast
+/-
esc
set tempo
stop
Author
Difficulty
Tuning
intermediate
E A D G B E
For those who already had the pleasure to hear the new album, here is the final track Spit Out The Bone.
More tabs from Hardwired... To Self-Destruct coming soon ;)

Intro:

(0:00 - 0:13)
e|---------------------------------------------------------------|
B|---------------------------------------------------------------|
G|---------------------------------------------------------------|
D|---------------------------------------------------------------|
A|-------------4s5-------------5s7-------------4s5-----4s5-4-5-7-|
E|-0000000000002s3-OOOOOOOOOOOO3s5-0000000000002s3-00002s3-2-3-5-|
   ............    ............    ............    ....    . .

e|--------------------------------------------------------------------|
B|--------------------------------------------------------------------|
G|--------------------------------------------------------------------|
D|--------------------------------------------------------------------|
A|-------------4s5-------------5s7-------------4s5-----4s5-4-5-7----7-|
E|-0000000000002s3-OOOOOOOOOOOO3s5-0000000000002s3-00002s3-2-3-5----5-|
   ............    ............    ............    ....    . .

(0:13 - 0:28 - repeat 2x and let it ring at the end)
e|---------------------------------------------------------------|
B|---------------------------------------------------------------|
G|---------------------------------------------------------------|
D|---------------------------------------------------------------|
A|-------------4s5-------------5s7-------------4s5-----4s5-4-5-7-|
E|-0000000000002s3-OOOOOOOOOOOO3s5-0000000000002s3-00002s3-2-3-5-|
   ............    ............    ............    ....    . .

(0:28 - 0:40 - repeat 2x)
e|-----------------------------------------------------|
B|-----------------------------------------------------|
G|-----------------------------------------------------|
D|-----------------------------------------------------|
A|-22222222--22222222--2222----22222222--22222222------|
E|-00000000--00000000--0000----00000000--00000000------|
   ........  ........  ....    ........  ........

(0:40 - 0:46)
e|------------------------------------------------------------------|
B|------------------------------------------------------------------|
G|------------------------------------------------------------------|
D|------------------------------------------------------------------|
A|---------10-7--------9-5----9-10--------10-7--------9-5-9-10s12~--|
E|-00000000----00000000---0000----00000000----00000000--------------|
   ........    ........   ....    ........    ........

(0:46 - 0:57)
e|-------------------------------------------------------------------------------------------|
B|-------------------------------------------------------------------------------------------|
G|-------------------------------------------------------------------------------------------|
D|-------------------------------------------------------------------------------------------|
A|---------10-7--------9-5----9-10--------10-7--------9-5-9-4-5-7--4-5-7--8-7--5-7-3--2----2-|
E|-00000000----00000000---0000----00000000----00000000------2-3-5--2-3-5--6-5--3-5-1--0----0-|
   ........    ........   ....    ........    ........      . .    . .         . .         

(0:57 - 1:02)
e|------------------------------------------------------------------|
B|------------------------------------------------------------------|
G|------------------------------------------------------------------|
D|------------------------------------------------------------------|
A|---------10-7--------9-5----9-10--------10-7--------9-5-9-10s12~--|
E|-00000000----00000000---0000----00000000----00000000--------------|
   ........    ........   ....    ........    ........

(1:02 - 1:09)
e|-----------------------------------------------------------------------|
B|-----------------------------------------------------------------------|
G|-----------------------------------------------------------------------|
D|-----------------------------------------------------------------------|
A|---------10-7--------9-5----9-10--------10-7--------9-5-9-4-5-7--4-5-7-|
E|-00000000----00000000---0000----00000000----00000000------2-3-5--2-3-5-|
   ........    ........   ....    ........    ........      . .    . .         

Verse:

(1:09 - 1:32 - repeat 2x)
e|-------------------------------------------------------------------|
B|-------------------------------------------------------------------|
G|--------------------------------2--------------------------------2-|
D|--------------------------------0--------------------------------0-|
A|-222222222222222222222222222222---222222222222222222222222222222---|
E|-------------------------------------------------------------------|
   ..............................   ..............................

e|---------------------------------------------------------------------|
B|---------------------------------------------------------------------|
G|---------------------------------------------------------------------|
D|--------------------------------7--------------------------------7-7-|
A|--------------------------------5--------------------------------5-5-|
E|-333333333333333333333333333333---333333333333333333333333333333-----|
   ..............................   ..............................

(1:32 - 1:36)
e|---------------------------------------------|
B|---------------------------------------------|
G|---------------------------------------------|
D|---------------------------------------------|
A|-----------------------------4-3-2-3-4-3-2-3-|
E|-2222222222222222222222222---2-1-0-1-2-1-0-1-|
   .........................   . . .   . . .

Chorus:

(1:36 - 1:45 - repeat 3x)
e|----------------------------------|
B|----------------------------------|
G|----------------------------------|
D|----------------------------------|
A|------------------4-3-2-3-4-3-2-3-|
E|-0000000000000000-2-1-0-1-2-1-0-1-|
   ................   . . .   . . .

(1:45 - 1:48)
e|-----------|
B|------0----|
G|------0----|
D|-2-------\-|
A|-2-------\-|
E|-0-------\-|

Second chorus is same as the first one.
Second chorus then ends with this over Rob bass line:

(2:36 - 2:53 - repeat 3x)
e|--------------------------------------------|
B|--------------------------------------------|
G|--------------------------------------------|
D|-----------------------------------6--6--6--|
A|-------2-----------2----------2----4--4--4--|
E|-0-000-0----0-000--0----0-000-0----4--4--4--|
   . ...      . ...       . ...

(2:53 - 2:59)
e|---------------|
B|---------------|
G|---------------|
D|------6--6--6--|
A|-2----4--4--4--|
E|-0----4--4--4--|

Bridge:

(2:59 - 3:10 - repeat 2x)
e|--------------------------------------------------------------------------|
B|--------------------------------------------------------------------------|
G|--------------------------------------------------------------------------|
D|---------5~----5-7-7-7pbr(1/2)-5-7pbr(1/2)-5-7-5---------5~-------6--6--6-|
A|-5h7-777-----7-----------------------------------5h7-777----7-5-7-4--4--4-|
E|------------------------------------------------------------------4--4--4-|

(3:10 - 3:16 - repeat 2x)
e|--------------------|
B|--------------------|
G|--------------------|
D|-9--9------6--6--6--|
A|-7--7--5-7-4--4--4--|
E|-7--7------4--4--4--|

(3:16 - 3:27 - repeat 2x)
e|--------------------------------------------------------------------------|
B|--------------------------------------------------------------------------|
G|--------------------------------------------------------------------------|
D|---------5~----5-7-7-7pbr(1/2)-5-7pbr(1/2)-5-7-5---------5~-------6--6--6-|
A|-5h7-777-----7-----------------------------------5h7-777----7-5-7-4--4--4-|
E|------------------------------------------------------------------4--4--4-|

(3:27 - 3:33)
e|-----------------------------------------------------------------|
B|-----------------------------------------------------------------|
G|-----------------------------------------------------------------|
D|-----------------------------------------------------------------|
A|-5h7-777-5-2-----5h7-777-5-2-----5h7-777-5-2-----5h7-777-5-2-----|
E|---------3-0-0-0---------3-0-0-0---------3-0-0-0---------3-0-0-0-|
               . .             . .             . .             . .

(3:33 - 3:43)
e|----------------------------------------------------------------|
B|----------------------------------------------------------------|
G|----------------------------------------------------------------|
D|----------------------------------------------------------------|
A|-5h7-777-5-2-----5h7-777-5-4-----5h7-777-5-2-----5h7-777-5-4----|
E|---------3-0-------------3-2-------------3-0-------------3-2----|

1ST SOLO:

(3:43 - 3:49)
James:
e|-----------------------------------------------------------------|
B|-----------------------------------------------------------------|
G|-----------------------------------------------------------------|
D|-----------------------------------------------------------------|
A|-5h7-777-5-2-----5h7-777-5-2-----5h7-777-5-2-----5h7-777-5-2-----|
E|---------3-0-0-0---------3-0-0-0---------3-0-0-0---------3-0-0-0-|
               . .             . .             . .             . .

Kirk:
e|------------------------------------------------------------------------|
B|----------------------------------12-12----12~---14br(1/2)-12----12~----|
G|----------------------------------12-12----12~---14br(1/2)-12----12~----|
D|-5~-----5~------7br(1/2)p5---5~---------14----14--------------14-----14-|
A|----7------7---------------7~---7---------------------------------------|
E|------------------------------------------------------------------------|

((3:49 - 3:58)
James:
e|------------------------------------------------------------------------------|
B|------------------------------------------------------------------------------|
G|------------------------------------------------------------------------------|
D|----------3-----------------3-------------------------------------------------|
A|-3s5------1-5------3s5------1-5-------------5--------7--------8--------10-12--|
E|-1s3-3333---3--3-3-1s3-3333---3--3-3-333333-3-555555-5-666666-6-888888-8--10--|
       ....      . .     ....      . . ......   ......   ......   ......

Kirk:
e|-----------------------------------------------------------------------------|
B|-------------------------------------------------------------------------3~w-|
G|-5b(7)TTTTTTTTTTTTTTTTTTTTTTTTT-5b-5b-5b-5b-5b-5b-5b-5b-5b-5b-5b-5br-----3~w-|
D|-----------------------------------------------------------------------------|
A|-----------------------------------------------------------------------------|
E|-----------------------------------------------------------------------------|

Harmony part:

(3:58 - 4:19 - repeat 4x)
Rhytm guitar:
e|---------------------------------------------|
B|---------------------------------------------|
G|-----------------------------------7---------|
D|-2------2--------2---------5-------7---------|
A|-2------2--------2---------5-------5---------|
E|-0------0--------0---------3-----------------|

James:
e|------------------------------------------------|
B|------------------------------------------------|
G|------------------------------------------------|
D|---9-9--5-5--4-4--------------------------------|
A|------------------7h10p7s5-7-/10-9-7-/9-7-5-5~--|
E|-0----------------------------------------------|

Kirk Harmony (comes in at 4:09 - repeat 2x):
e|---------------------------------------------|
B|---------------------------------------------|
G|---9-9---------------------------------------|
D|--------9-9--7-7--5-5-4-5--/9-7-5-/7-5-4-4~--|
A|---------------------------------------------|
E|-0-------------------------------------------|

(4:19 - 4:42 - repeat 4x)
e|---------------------------------------------|
B|---------------------------------------------|
G|---------------------------12-------7--------|
D|-9------9--------9---------12-------7--------|
A|-7------7--------7---------10-------5--------|
E|-0------0--------0---------10-------5--------|

Instrumental part:
(4:42 - 4:45)
e|---------------------------|
B|---------------------------|
G|---------------------------|
D|---------------------------|
A|-4-5-7--4-5-7--8-7--5-7-3--|
E|-2-3-5--2-3-5--6-5--3-5-1--|
   . .    . .         . .   

(4:45 - 4:56 - repeat 4x)
e|---------------------------------|
B|----------14-12~----------12-10~-|
G|----------14-12~----------12-10~-|
D|---------------------------------|
A|---------------------------------|
E|-00000000--------00000000--------|
   ........        ........

(4:56 - 5:03)
e|------------------------------------------------|
B|------------------------------------------------|
G|------------------------------------------------|
D|----------------9-7----------------9-7----------|
A|-2-2-3-2----2-2-7-5-2-2-3-2----2-2-7-5----2-2-2-|
E|-0-0-1-0----0-0-----0-0-1-0----0-0--------0-0-0-|

(5:03 - 5:12)
e|------------------------------------------------------------------------------|
B|-----------------------------------------------------------------14-12b(1/2)~-|
G|-----------------------9~------9~------------------------9~------14-12b(1/2)~-|
D|-----------------------9~------9~------------------------9~-------------------|
A|-4-3---3-4-3---3-------------------4-3---3-4-3---3----------------------------|
E|-2-1-0-1-2-1-0-1-0--0------0-0-----2-1-0-1-2-1-0-1-0--0------0-0--------------|
   . . . . . . . .                   . . . . . . . .

(5:12 - 5:22)
e|---------------------------------------------------------------------------------------------|
B|-------------------------------14-12b(1/2)~----------------------14-12------14-12-----14-12~-|
G|-----------------------9~------14-12b(1/2)~----------------------14-12------14-12-----14-12~-|
D|-----------------------9~--------------------------------------------------------------------|
A|-4-3---3-4-3---3-----------------------------4-3---3-4-3---3---------------------------------|
E|-2-1-0-1-2-1-0-1-0--0------0-0---------------2-1-0-1-2-1-0-1-0-0--------0-0-------0-0--------|
   . . . . . . . .                              . . . . . . . .

(5:22 - 5:34 - repeat 4x)
e|---------------------|
B|---------------------|
G|---------------------|
D|---------------------|
A|-4-3-2--2--3-4--3-2--|
E|-2-1-0--0--1-2--1-0--|
     . .  .         

(5:34 - 5:44)
e|-------------------------------------------------------------------------------------|
B|---------------------------------------------------------14-12~-----14-12~----14-12~-|
G|-----------------------9~-------9~-----------------------14-12~-----14-12~----14-12~-|
D|-----------------------9~-------9~---------------------------------------------------|
A|-4-3---3-4-3---3---------------------4-3---3-4-3---3---------------------------------|
E|-2-1-0-1-2-1-0-1-0--0------0-0-------2-1-0-1-2-1-0-1-0-0--------0-0-------0-0--------|
   . . . . . . . .                              . . . . . . . .

(5:44 - 5:57 - Intro riff again)
e|---------------------------------------------------------------|
B|---------------------------------------------------------------|
G|---------------------------------------------------------------|
D|---------------------------------------------------------------|
A|-------------4s5-------------5s7-------------4s5-----4s5-4-5-7-|
E|-0000000000002s3-OOOOOOOOOOOO3s5-0000000000002s3-00002s3-2-3-5-|
   ............    ............    ............    ....    . .

e|--------------------------------------------------------------------|
B|--------------------------------------------------------------------|
G|--------------------------------------------------------------------|
D|--------------------------------------------------------------------|
A|-------------4s5-------------5s7-------------4s5-----4s5-4-5-7----7-|
E|-0000000000002s3-OOOOOOOOOOOO3s5-0000000000002s3-00002s3-2-3-5----5-|
   ............    ............    ............    ....    . .

2ND SOLO

(5:57 - 6:02)
James
e|---------------------------------------------------------------|
B|---------------------------------------------------------------|
G|---------------------------------------------------------------|
D|---------------------------------------------------------------|
A|-------------4s5-------------5s7-------------4s5-----4s5-4-5-7-|
E|-0000000000002s3-OOOOOOOOOOOO3s5-0000000000002s3-00002s3-2-3-5-|
   ............    ............    ............    ....    . .

Kirk:
e|--------12--------------12--------------12--------------12--------------12--------------12-------|
B|-----12----15p12-----12----15p12-----12----15p12-----12----15p12-----12----15p12-----12----15p12-|
G|-14b-------------14b-------------14b-------------14b-------------14b-------------14b-------------|
D|-------------------------------------------------------------------------------------------------|
A|-------------------------------------------------------------------------------------------------|
E|-------------------------------------------------------------------------------------------------|

e|--------12--------15p14p12-12-15p14p12-12-15p14p12-12-15p14p12-12-|
B|-----12----15p12--------------------------------------------------|
G|-14b--------------------------------------------------------------|
D|------------------------------------------------------------------|
A|------------------------------------------------------------------|
E|------------------------------------------------------------------|

(6:02 - 6:08)
James
e|---------------------------------------------------------------|
B|---------------------------------------------------------------|
G|---------------------------------------------------------------|
D|---------------------------------------------------------------|
A|-------------4s5-------------5s7-------------4s5-----4s5-4-5-7-|
E|-0000000000002s3-OOOOOOOOOOOO3s5-0000000000002s3-00002s3-2-3-5-|
   ............    ............    ............    ....    . .

Kirk:
e|----------------------------------------------------------------------------|
B|----------------------------------------------------------------------------|
G|-----12-12-----12-12-----12-12-12~------12-12-----12-12-----12-11s12--------|
D|-----12-12-----12-12-----12-12-14~------12-12-----12-12-----12-------14~----|
A|-/14-------/14-------/14------------/14-------/14-------/14-----------------|
E|----------------------------------------------------------------------------|

(6:08 - 6:14)
James:
e|-------------------------------|
B|-------------------------------|
G|-------------------------------|
D|-------------------------------|
A|-7------10--9---7------10--9---|
E|-5------8---7---5------8---7---|

Kirk:
e|-----------------------------------------------------------|
B|-----------------------------------------------------------|
G|----4-5-5s7-5-4-4h5-4---4~-------4-5-5s7-5-4-4h5-4-7-4-----|
D|-/7-------------------7-------/7-----------------------5\--|
A|-----------------------------------------------------------|
E|-----------------------------------------------------------|

(6:14 - 6:19)
James
e|---------------------------------------------------------------|
B|---------------------------------------------------------------|
G|---------------------------------------------------------------|
D|---------------------------------------------------------------|
A|-------------4s5-------------5s7-------------4s5-----4s5-4-5-7-|
E|-0000000000002s3-OOOOOOOOOOOO3s5-0000000000002s3-00002s3-2-3-5-|
   ............    ............    ............    ....    . .

Kirk:
e|-10-8-7-7-10-8-7-7-10-8-7-7-10-8-7-7-12-10-8-8--12-10-8-8-12-10-8-8-12-10-8-8-|
B|------------------------------------------------------------------------------|
G|------------------------------------------------------------------------------|
D|------------------------------------------------------------------------------|
A|------------------------------------------------------------------------------|
E|------------------------------------------------------------------------------|

e|-14-12-10-10-14-12-10-10-15-14-12-12-15-14-12-12-17-15-14-14-17-15-14-14------|
B|--------------------------------------------------------------------------0w↓-|
G|--------------------------------------------------------------------------0w↓-|
D|------------------------------------------------------------------------------|
A|------------------------------------------------------------------------------|
E|------------------------------------------------------------------------------|

(6:19 - 6:24)
James
e|---------------------------------------------------------------|
B|---------------------------------------------------------------|
G|---------------------------------------------------------------|
D|---------------------------------------------------------------|
A|-------------4s5-------------5s7-------------4s5-----4s5-4-5-7-|
E|-0000000000002s3-OOOOOOOOOOOO3s5-0000000000002s3-00002s3-2-3-5-|
   ............    ............    ............    ....    . .

Kirk:
e|---------------------------------------------|
B|-14b(1/2)--12~----12-14b-14b(1/2)-12~----12--|
G|-14b(1/2)--12~----12-14b-14b(1/2)-12~----12--|
D|---------------14---------------------14-----|
A|---------------------------------------------|
E|---------------------------------------------|

e|---------------------------------------------------------------------------------------|
B|-----12-15p12-15p12-----12-15p12-15p12-----12-15p12-17p12-15p12-----12-----------------|
G|-14b----------------14b----------------14b----------------------14b----14p12-----------|
D|-----------------------------------------------------------------------------14-14-14~-|
A|---------------------------------------------------------------------------------------|
E|---------------------------------------------------------------------------------------|

(6:24 - 6:30 - both guitars repeat 2x)
James:
e|---------------------------------------|
B|---------------------------------------|
G|---------------------------------------|
D|---------------------------------------|
A|------10-7------9-5------7-4------5-2--|
E|-0000------0000-----0000-----0000------|
   ....      ....     ....     ....

Kirk:
e|-19p15----------15-17p14----------14-15p12----------12-14p10----------12-|
B|-------17----17----------15----15----------13----13----------12----12----|
G|----------16----------------14----------------12----------------11-------|
D|-------------------------------------------------------------------------|
A|-------------------------------------------------------------------------|
E|-------------------------------------------------------------------------|

(6:30 - 6:35)

e|-10h12-0-0-12h14-0-0-10h12-0-0-12h14-0-0-14h15-0-0-12h14-0-0-14h15-0-0-15h17--------|
B|-----------------------------------------------------------------------------|12|w↓-|
G|-----------------------------------------------------------------------------|12|w↓-|
D|------------------------------------------------------------------------------------|
A|------------------------------------------------------------------------------------|
E|------------------------------------------------------------------------------------|

Last Chorus:

(6:33 - 6:38)
e|--------------------------------------------------|
B|--------------------------------------------------|
G|--------------------------------------------------|
D|-----------------------------2--------------------|
A|-------------------------4-5-0-4--4-3-2-3-4-3-2-3-|
E|-2222222222222222222222222-3---2--2-1-0-1-2-1-0-1-|
   ......................... . .      . . .   . . .

(6:38 - 6:46 - repeat 3x)
e|----------------------------------|
B|----------------------------------|
G|----------------------------------|
D|----------------------------------|
A|------------------4-3-2-3-4-3-2-3-|
E|-0000000000000000-2-1-0-1-2-1-0-1-|
   ................   . . .   . . .

(6:46 - 6:49)
e|-----------|
B|------0----|
G|------0----|
D|-2-------\-|
A|-2-------\-|
E|-0-------\-|

Outro:

(6:49 - 6:55)
e|------------------------------------------------------------------|
B|------------------------------------------------------------------|
G|------------------------------------------------------------------|
D|------------------------------------------------------------------|
A|---------10-7--------9-5----9-10--------10-7--------9-5-9-10s12~--|
E|-00000000----00000000---0000----00000000----00000000--------------|
   ........    ........   ....    ........    ........

(6:55 - END)
e|---------------------------------------------------------------------------------------|
B|---------------------------------------------------------------------------------------|
G|---------------------------------------------------------------------------------------|
D|---------------------------------------------------------------------------------------|
A|---------10-7--------9-5----9-10--------10-7--------9-5-9-4-5-7--4-5-7--8-7--5-7-3--2--|
E|-00000000----00000000---0000----00000000----00000000------2-3-5--2-3-5--6-5--3-5-1--0--|
   ........    ........   ....    ........    ........      . .    . .         . .       

************************************
| .   palm mute
| /   slide up
| \   slide down
| s   slide
| h   hammer-on
| p   pull-off
| ~   vibrato
| x   mute note
| b   bend
| br  bend release
| pb  pre-bend
| ||  pinch harmonics
| w   whammy bar (↑ = pull up,↓ = push down/dive bomb)
| T   tremolo picking
************************************
Suggest correction
comments
print report bad tab
6 comments total. Showing first comments.
+4 reply
jorzef91990 10 Nov 15, 2016 05:05 PM

Nice tab but the riff at 0:40 it's easier if played like this:

A|---------10-----------9-------9-10--------10-----------9---9-10s12~--|
E|-00000000--12-00000000-10-0000----00000000--12-00000000-10-----------|
........ ........ .... ........ ........

+1 reply
starfire666 1,160 Nov 24, 2016 07:03 AM

paráda, kámo, len tak ďalej ;-)

0 reply
mariogrdn 16 Feb 09, 2017 01:45 PM, edited on February 10 2017, 10:14 am

The tab is almost perfect but I think that the James' harmony part sounds better like this:e|------------------------------------------------|B|------------------------------------------------|G|------------------------------------------------|D|---9-9--5-5--4-4--------------------------------|A|------------------7h10h7s5-7-/10-9-7-/9-7-5-5~--|E|-0----------------------------------------------|

guest
You may want to rate the tab now too:
select rating
Wanna post a correction for this tab? Suggest correction