Oops, an error
Loading. Please wait.

St Anger Bass Tab

version 3
version 3

Whole song

12,640 views 9 this week
2 commentsread comments
1 2 3 4 5
accurate
x 10
add to favorites
launch autoscroll
font size
0
reset
guitar tuner
Autoscroll
slow
fast
+/-
esc
set tempo
stop
Help us to improve Ultimate-Guitar.com Take our survey!
×
-----------------------------------------------------------------------
			  St. Anger - Metallica
-----------------------------------------------------------------------

Tabbed By : MetallicaTabber
e-mail: MasterOfPuppetzz@hotmail.com

You must listen to the song
when you learn it or else it
would be hard to understand
some the tabs some times.


Tuning: Low to high: C G C F

  0:20                         0:23           0:26
F|----------------------------|--------------|--------------|
C|----------------------------|--------------|--------------|
G|----------------------------|--------------|--------------|
C|-2-1-0--2-1-0--2-1-0--2-1-0-|-2-1-0--2-1-0-|-2-1-0--2-1-0-|

  0:29           0:31
F|--------------|----------------------------|
C|--------------|----------------------------|
G|--------------|----------------------------|
C|-2-1-0--2-1-0-|-2-1-0--2-1-0--2-1-0--2-1-0-|

  0:34               x8
F|-----------------------------------|
C|-----------------------------------|
G|-----------------------------3-3-3-|
C|-0-1-2--0--2-1-0--2-1-0--1-1-------|

  0:54                         0:56             x4
F|----------------------------|---------------------|
C|----------------------------|---------------------|
G|----------------------------|--------------3-1-0--|
C|-2-1-0--2-1-0--2-1-0--2-1-0-|-0-(0)--0-0--0-------|

  1:17                                      x4
F|-----------------------------------------------------------------|
C|-----------------------------------------------------------------|
G|---------------------------------3-3-3-3-3-3-3-3-1-1-1-1-0-0-0-0-|
C|-0-0-0-0-0-0-0-0-0-0-0-0-0-0-0-0---------------------------------|

  1:38              x2
F|----------------------------|
C|----------------------------|
G|-------------------3---1--0-|
C|-0-(0)---0-0--0-0-----------|

  1:48                                          x8
F|-----------------------------------------------------------------|
C|-----------------------------------------------------------------|
G|---------------------------------3-3-3-3-3-3-3-3-1-1-1-1-0-0-0-0-|
C|-0-0-0-0-0-0-0-0-0-0-0-0-0-0-0-0---------------------------------|

  2:30
F|---------------------------|
C|---------------------------|
G|---------------------------|
C|-0-(0)---00--00--00--00--0-|

  2:34    2:37                   x8
F|-------|-----------------------------------|
C|-------|-----------------------------------|
G|-BREAK-|-----------------------------3-3-3-|
C|-------|-0-1-2--0--2-1-0--2-1-0--1-1-------|

  2:57                         2:59        x4
F|----------------------------|---------------------|
C|----------------------------|---------------------|
G|----------------------------|---------------3-1-0-|
C|-2-1-0--2-1-0--2-1-0--2-1-0-|-0-(0)--0-0--0-------|

  3:20                                      x4
F|-----------------------------------------------------------------|
C|-----------------------------------------------------------------|
G|---------------------------------3-3-3-3-3-3-3-3-1-1-1-1-0-0-0-0-|
C|-0-0-0-0-0-0-0-0-0-0-0-0-0-0-0-0---------------------------------|

  3:41              x2
F|----------------------------|
C|----------------------------|
G|-------------------3---1--0-|
C|-0-(0)---0-0--0-0-----------|

  3:51                                           x8
F|-----------------------------------------------------------------|
C|-----------------------------------------------------------------|
G|---------------------------------3-3-3-3-3-3-3-3-1-1-1-1-0-0-0-0-|
C|-0-0-0-0-0-0-0-0-0-0-0-0-0-0-0-0---------------------------------|

  4:33
F|---------------------------|
C|---------------------------|
G|---------------------------|
C|-0-(0)---00--00--00--00--0-|

  4:37         4:56                     5:00      x3
F|------------|------------------------|----------------|
C|------------|------------------------|----------------|
G|-LONG-BREAK-|------------------------|----------------|
C|------------|-2------2------2------2-|-2------2-------|

  5:07                     5:10                     x26!
F|------------------------|-----------------------------------|
C|------------------------|-----------------------------------|
G|------------------------|-----------------------------3-3-3-|
C|-2------2------2------2-|-0-1-2--0--2-1-0--2-1-0--1-1-------|

  6:17
F|----------------------------|
C|----------------------------|
G|----------------------------|
C|-2-1-0--2-1-0--2-1-0--2-1-0-|

  6:19                                            x10
F|-----------------------------------------------------------------|
C|-----------------------------------------------------------------|
G|---------------------------------3-3-3-3-3-3-3-3-1-1-1-1-0-0-0-0-|
C|-0-0-0-0-0-0-0-0-0-0-0-0-0-0-0-0---------------------------------|


  7:12                        7:16    7:19
F|---------------------------|-------|---------------
C|---------------------------|-------|----------------
G|---------------------------|-BREAK-|----------------
C|-0-(0)---00--00--00--00--0-|-------|--0--(0)-------

Thank you! I hope you enjoyed to learn this great song!


| /  slide up
| \  slide down
| h  hammer-on
| p  pull-off
| ~  vibrato
| +  harmonic
| x  Mute note
|( ) Let Ring
========================================================================
Suggest correction
comments
print report bad tab
2 comments total.
0 reply
lazyjamin 51 wrote on May 31 2007, 12:54 pm

playe dthis live with my band and it went down a storm, cheers

0 reply
bass_master23 10 wrote on February 8 2008, 08:44 pm

nice better then the others but a little off

guest
You may want to rate the tab now too:
select rating
Please do not post tabs as comments. Select "correction" instead!