Oops, an error
Loading. Please wait.

Stone Dead Forever Bass Tab

version 2
version 2

Whole song

Interactive

255 views 1 this week
no commentswrite comment
1 2 3 4 5
2 more votes to show rating
add to favorites
launch autoscroll
font size
0
reset
guitar tuner
Autoscroll
slow
fast
+/-
esc
set tempo
stop
Help us to improve Ultimate-Guitar.com Take our survey!
×
Difficulty
novice
Intro(many times)
G-----------------------|
D-----------------------|
A--7-5-7--5--7-5-7------|
E-----------------------|

Verse(2x)
G-----------------------------------------------------|
D-----------------------------------------------------|
A-7-5-7---7-5-7---7-5-7---5-3-5--3--------------------|
E-----------------------------------------------7-5-7-|

Chorus
G-----------------------------------------------------------------------------------|
D-----------------------------------------------------------------------------------|
A----------------------------5-5-5-5-5-5-5-5-5-5-5-5-5-5----------------------------|
E-7-7-7-7-7-7-7-7-7-7-7-7-7-------------------------------5-5-5-5-5-5-5-5-5-5-5-5-5-|

Chorus(cont'd)
G-----------------------------------------------------------------------------------|
D-----------------------------------------------------------------------------------|
A-----------------------------0-0-0-0-0-0-0-0-0-0-0-0-0-0-5-5-5-5-5-5-5-5-5-5-5-5-5-|
E-2-2-2-2-2-2-2-2-2-2-2-2-2-2-------------------------------------------------------|

Chorus(cont'd)
G-------------------------|
D-------------------------|
A-------------------------|
E-7-7-7-7-5-5-4-4-2-2-2-2-|

Bridge
G-------------------------------------------------------------------------|
D-------------------------------------------------------------------------|
A2-2-2-2-2-2-2-2-2-2-2-2/5-5-5-5-5-5-5-5-5-5-5-5/7-7-7-7-7-7-7-7-7-7-7-7/-|
E-------------------------------------------------------------------------|

Bridge(cont'd)
G----------------------|
D-5-5-5-5-5-7-7-7-7-7--|
A----------------------|
E----------------------|
Suggest correction
Give kudos to tab author, rate the tab!
1 2 3 4 5
comments
print report bad tab
guest
You may want to rate the tab now too:
select rating
Wanna post a correction for this tab? Suggest correction