Oops, an error
Loading. Please wait.

Stone Dead Forever Bass Tab

version 3
version 3

Whole song

Interactive

518 views 3 this week
no commentswrite comment
1 2 3 4 5
please rate
add to favorites
launch autoscroll
font size
0
reset
guitar tuner
Autoscroll
slow
fast
+/-
esc
set tempo
stop
Help us to improve Ultimate-Guitar.com Take our survey!
×
Author
Difficulty
Tuning
novice
D# G# C# F# A# D#
-------------------------------------------------------------------------------
                             Stone Dead Forever - Metallica
-------------------------------------------------------------------------------
Tabbed by: MetallicaDMRTL 
Tuning: half step down

hey guys heads up for this song i just wanna say, FUCK U to whoever made such 
shitty versions of this song so fuck em all and here it is (Mostly Correct) Stone Dead Forever!!!

Intro
G-----------------------|
D-----------------------|
A--7-5-7--5--7-5-7--5---| x12
E-----------------------|

Verse(2x)
G-----------------------------------------------------------------------------|
D-----------------------------------------------------------------------------|
A-7-5-7--5--7-5-7--5--7-5-7--5--7-5-7--5--7-5-7--5--7-5-7--5--3-5-3--3--3-5-3-|
E-----------------------------------------------------------------------------|

"Ur out there on ur own"
G-----------------------------------------------------------------------------------|
D-----------------------------------------------------------------------------------|
A----------------------------5-5-5-5-5-5-5-5-5-5-5-5-5-5----------------------------|
E-7-7-7-7-7-7-7-7-7-7-7-7-7-------------------------------5-5-5-5-5-5-5-5-5-5-5-5-5-|

"Stone"
G-----------------------------------------------------------------------------------|
D-----------------------------------------------------------------------------------|
A-----------------------------0-0-0-0-0-0-0-0-0-0-0-0-0-0-5-5-5-5-5-5-5-5-5-5-5-5-5-|
E-2-2-2-2-2-2-2-2-2-2-2-2-2-2-------------------------------------------------------|

"Stone DEAD Forever!!"
G-------------------------|
D-------------------------|
A-------------------------|
E-7-7-7-7-5-5-4-4-2-2-2-2-|

Verse 3x
G-----------------------------------------------------------------------------|
D-----------------------------------------------------------------------------|
A-7-5-7--5--7-5-7--5--7-5-7--5--7-5-7--5--7-5-7--5--7-5-7--5--3-5-3--3--3-5-3-|
E-----------------------------------------------------------------------------|

"Ur time"
G-----------------------------------------------------------------------------------|
D-----------------------------------------------------------------------------------|
A----------------------------5-5-5-5-5-5-5-5-5-5-5-5-5-5----------------------------|
E-7-7-7-7-7-7-7-7-7-7-7-7-7-------------------------------5-5-5-5-5-5-5-5-5-5-5-5-5-|

"gold"
G-----------------------------------------------------------------------------------|
D-----------------------------------------------------------------------------------|
A-----------------------------0-0-0-0-0-0-0-0-0-0-0-0-0-0-5-5-5-5-5-5-5-5-5-5-5-5-5-|
E-2-2-2-2-2-2-2-2-2-2-2-2-2-2-------------------------------------------------------|

"Stone DEAD Forever!!"
G-------------------------|
D-------------------------|
A-------------------------|
E-7-7-7-7-5-5-4-4-2-2-2-2-|

G-----------------------|
D-----------------------|
A--7-5-7--5--7-5-7--5---| x4
E-----------------------|

G-------------------------------------------------------------------------|
D-------------------------------------------------------------------------|
A2-2-2-2-2-2-2-2-2-2-2-2/5-5-5-5-5-5-5-5-5-5-5-5/7-7-7-7-7-7-7-7-7-7-7-7/-|
E-------------------------------------------------------------------------|

G----------------------|
D----------------------|
A-3-3-3-3-3/5-5-5-5-5--| x4
E----------------------|

G-----------------------|
D-----------------------|
A--7-5-7--5--7-5-7--5---| x4
E-----------------------|

Verse 2x
G-----------------------------------------------------------------------------|
D-----------------------------------------------------------------------------|
A-7-5-7--5--7-5-7--5--7-5-7--5--7-5-7--5--7-5-7--5--7-5-7--5--3-5-3--3--3-5-3-|
E-----------------------------------------------------------------------------|

"Ur time"
G-----------------------------------------------------------------------------------|
D-----------------------------------------------------------------------------------|
A----------------------------5-5-5-5-5-5-5-5-5-5-5-5-5-5----------------------------|
E-7-7-7-7-7-7-7-7-7-7-7-7-7-------------------------------5-5-5-5-5-5-5-5-5-5-5-5-5-|

"gold"
G-----------------------------------------------------------------------------------|
D-----------------------------------------------------------------------------------|
A-----------------------------0-0-0-0-0-0-0-0-0-0-0-0-0-0-5-5-5-5-5-5-5-5-5-5-5-5-5-|
E-2-2-2-2-2-2-2-2-2-2-2-2-2-2-------------------------------------------------------|

"Stone DEAD Forever!!"
G-------------------------|
D-------------------------|
A-------------------------|
E-7-7-7-7-5-5-4-4-2-2-2-2-|

G-------------------------------------------------------------------------|
D-------------------------------------------------------------------------|
A2-2-2-2-2-2-2-2-2-2-2-2/5-5-5-5-5-5-5-5-5-5-5-5/7-7-7-7-7-7-7-7-7-7-7-7/-|
E-------------------------------------------------------------------------|

G----------------------|
D----------------------|
A-3-3-3-3-3/5-5-5-5-5--| ride this rift through the 2nd solo till
E----------------------|

G|-------|
D|-------|
A|-7-5-7-|
E|-------|

well another awesome motorhead song, this one is simple but a sweet beast!!!

MetalicaDMRTL

                         \m/Metallica\m/
Suggest correction
Give kudos to tab author, rate the tab!
1 2 3 4 5
comments
print report bad tab
guest
You may want to rate the tab now too:
select rating
Wanna post a correction for this tab? Suggest correction