Oops, an error
Loading. Please wait.

Suicide And Redemption Bass Tab

version 1
version 1

Whole song

28,367 views 15 this week
17 commentsread comments
1 2 3 4 5
x 14
add to favorites
launch autoscroll
font size
0
reset
guitar tuner
Autoscroll
slow
fast
+/-
esc
set tempo
stop
Help us to improve Ultimate-Guitar.com Take our survey!
×
Tabbed by Dragon

Standard Tuning

i have been told by pat (guy who caught the mistake on riff six) trujilo plays a five 
bass. so this is for people with a four string bass.

Thanks to pat for catching the mistake on riff six

if you can hear the bass you deserve a goddamn cookie

Intro (im not really sure about this part, but you get it)
G----------------------------------|
D----------------------------------|  6x
A-2-2-0-2-2-2-0-2-2-2-0-2-3-2-0-2--|
E----------------------------------|

Riff 2
G----------------------------------|
D----------------------------------|  4x
A--2-2-0-2-2-0-2-0-2-2-0-2-0-2-3-0-|
E----------------------------------|

Riff 3
G----------------------------------|
D----------------------------------|   3x
A--2-x-x-2-x-x-2-x-x-3-3-3-3-3-3-3-|
E----------------------------------|

Bass Interlude
G-----------------------------------|
D-----------------------------------|
A--0-2-0-2-3-2-0-2-0-2-3-0-2-0-2-3--|
E-----------------------------------|

Riff 4
G-----------------------------|
D-----------------------------| 4x
A--5b6r5-2-0-2-2-0-2-2-0-2-0--|
E-----------------------------|

Riff 5
G-------------------------------------|
D--------------------7777777777777777-| 1x then repeat from riff 4
A--5555555555555555-------------------|
E-------------------------------------|

Riff 6
G----------------------------------------|
D----------------------------------------|  2x
A---------------3-2-3-2------------------|
E--2-2-0-2-0-2-----------2-2-0-2-0-2-0-2-|

G-------------------------|
D-2-2-2-2-2-2-3-3-3-3-3-3-|
A-------------------------|
E-------------------------|

G----------------------------------------|
D----------------------------------------|  1x
A---------------3-2-3-2------------------|
E--2-2-0-2-0-2-----------2-2-0-2-0-2-0-2-|

G----------------------------------------8-|
D-2-2-2-2-2-2-3-3-3-3-3-3-4-4-4-4-4-4-7-8--|
A------------------------------------------|
E------------------------------------------|

Riff 4
G-----------------------------|
D-----------------------------| 8x
A--5b6r5-2-0-2-2-0-2-2-0-2-0--|
E-----------------------------|

Riff 5
G-------------------------------------|
D--------------------7777777777777777-| 1x
A--5555555555555555-------------------|
E-------------------------------------|

Riff 4
G-----------------------------|
D-----------------------------| 4x
A--5b6r5-2-0-2-2-0-2-2-0-2-0--|
E-----------------------------|

Riff 5
G-------------------------------------|
D--------------------7777777777777777-| 1x
A--5555555555555555-------------------|
E-------------------------------------|

Riff 6
G----------------------------------------|
D----------------------------------------|  2x
A---------------3-2-3-2------------------|
E--2-2-0-2-0-2-----------2-2-0-2-0-2-0-2-|


G----------------------------------------8-|
D-2-2-2-2-2-2-3-3-3-3-3-3-4-4-4-4-4-4-7-8--|
A------------------------------------------|
E------------------------------------------|

Riff 4
G-----------------------------|
D-----------------------------| 4x
A--5b6r5-2-0-2-2-0-2-2-0-2-0--|
E-----------------------------|

Riff 7
G----------------------|
D----------------------|  4x
A----------------5-6-7-|
E--0-0--0-0-0-0--------|

On the fifth time play
G------------------------------------|
D------------------------------------|  Repeat from riff 7
A--3-3-3-3-3-3--5-6-7---3---5--5-4-3-|
E---------------------3---5----------|

After that ^ play
G-------------------|
D-------------------|
A--3-2-1--0-3-2ring-|
E-------------------|

Riff 8 (all notes held)
G-----------------|
D-----------------|  4x
A--5------0-----2-|
E-----------------|

Riff 7
G----------------------|
D----------------------|  4x
A----------------5-6-7-|
E--0-0--0-0-0-0--------|

On the fifth time play
G------------------------------------|
D------------------------------------|  Repeat from riff 7
A--3-3-3-3-3-3--5-6-7---3---5--5-4-3-|
E---------------------3---5----------|

on second time, repeat from riff 7 again

G--------------------------------------------------------------------|
D--------------------------------------------------------------------| 2x
A--555555555555555500000000000000002222222222222222------------------|
E----------------------------------------------------2-0-2-3-2-0-2-3-|
                                                      Play 6 times
G---------------------------------------------------|------------------|
D---------------------------------------------------|o-----------------|
A--222222222222222-00000000-------------------------|o-----------------|
E---------------------------2-0-2-3-2-0-2-3-00000000|--2-0-2-3-2-0-2-3-|

Riff 2
G----------------------------------|
D----------------------------------|  16x
A--2-2-0-2-2-0-2-0-2-2-0-2-0-2-3-0-|
E----------------------------------|

Riff 3
G----------------------------------|
D----------------------------------|   4x
A--2-x-x-2-x-x-2-x-x-3-3-3-3-3-3-3-|
E----------------------------------|

Solo part one (Riff 3)
G----------------------------------|
D----------------------------------|   4x
A--2-x-x-2-x-x-2-x-x-3-3-3-3-3-3-3-|
E----------------------------------|

Solo part 2
G--------------------|
D--------------------|   4x
A--5555222222222222--|
E--------------------|

Solo part 3
G-------------------------------------|
D--------------------7777777777777777-| 1x then play through solo again
A--5555555555555555-------------------|
E-------------------------------------|

Riff 9
G-------------------------------|
D-----------------5-------------|  2x
A-2-0-2-3-2-0-2-3---3-2-0-2-3-2-|
E-------------------------------|

G-------------------------------|
D-------------------------------|  2x
A-----------------5-------------|
E-2-0-2-3-2-0-2-3---3-2-0-2-3-2-|

G-------------------------------|
D-----------------5-------------|  2x
A-2-0-2-3-2-0-2-3---3-2-0-2-3-2-|
E-------------------------------|

G------------------2----------------|
D-----------------------------------|  2x
A-4-2-4-5-4-2-4-5-----5-4-2-4-5-4-2-|
E-----------------------------------|

G------------------------------------------------------|
D--1111111122222222-3-2-3-4-3-4-5-4-5-6-5-6------------|
A------------------------------------------------------|
E------------------------------------------------------|

G----------------------------------------8-|
D-2-2-2-2-2-2-3-3-3-3-3-3-4-4-4-4-4-4-7-8--|
A------------------------------------------|
E------------------------------------------|

Riff 4
G-----------------------------|
D-----------------------------| 4x
A--5b6r5-2-0-2-2-0-2-2-0-2-0--|
E-----------------------------|

Riff 5
G-------------------------------------|
D--------------------7777777777777777-| 1x
A--5555555555555555-------------------|
E-------------------------------------|

Riff 10
G------------------|
D------------------| 4x
A--8-7---5-----5---|
E------7---7-6---5-|

Riff 11
G------------------|
D------------------| 4x
A--8-7-------------|
E------------------|

Riff 10
G------------------|
D------------------| 3x
A--8-7---5-----5---|
E------7---7-6---5-|

Riff 12
G------------------------|
D------------------------|
A--8-7---5-----------2-2-|
E------7---6-5--3-1------|

Riff 13
G----------------------------------------|
D----------------------------------------|  2x
A--4-4-2-4-2-4-----------4-4-2-4-2-4-2-4-|
E--------------3-2--3-2------------------|

Riff 14
G---------------------------|
D---------------------------|  repeat and fade
A--4-4-2-4-2-4--------------|
E---------------3-2-2-1-1-0-|
Suggest correction
comments
print report bad tab
17 comments total. Showing first comments.
+2 reply
smartguyreviews 206 Oct 01, 2008 03:31 PM

Im having trouble updating any tab i post. until i figure out how, heres how the solo section should go (sorry bout how wrong it is i did it in a hurry):

Solo pat 1
G----------------------------------|
D----------------------------------| 4x
A--2-x-x-2-x-x-2-x-x-3-3-3-3-3-3-3-|
E----------------------------------|

Solo part 2
G--------------------|
D--------------------| 4x
A--5555222222222222--|
E--------------------|

Solo part 3
G---------------------|
D------------77777777-| 1x
A--55555555-----------|
E---------------------|

repeat the entire section

+1 reply
smartguyreviews 206 Oct 02, 2008 05:56 PM

alright my bad, any part that i have as
G---------------------|
D------------77777777-| 1x
A--55555555-----------|
E---------------------|

should be played as
G-------------------------------------|
D--------------------7777777777777777-| 1x
A--5555555555555555-------------------|
E-------------------------------------|

0 reply
smartguyreviews 206 Oct 02, 2008 07:04 PM

okay now its (if it hasnt before) updating, if anyone on the site did anything, thank you, if not, sorry for wasting your time, and as anyone who knows me will say, im computer retarded.

guest
You may want to rate the tab now too:
select rating
Wanna post a correction for this tab? Suggest correction