Oops, an error
Loading. Please wait.

Suicide And Redemption Tab

version 1
version 1

Intro

Solo

Whole song

4,966 views 39 this week
no commentswrite comment
1 2 3 4 5
excellent!
x 1
add to favorites
launch autoscroll
font size
0
reset
how to read this tab
guitar tuner
Tab Pro tools
  • play this tab
  • loop segment
  • change instrument
  • show fretboard
  • metronome
Autoscroll
slow
fast
+/-
esc
set tempo
stop
Contributor
Difficulty
intermediate
Tabbed by: macdaddyjobob
Email: jake.spreadbury@yahoo.com

Here's the full solo done by James Hetfield on the Guitar Hero III version, 
Suicide & Redemption J.H. 
I have listened to the song and tried to duplicate as close as I possibly can to 
the real thing. Enjoy!

Key:
h: hammer-on
p: pull-off
/: upward slide
\: downward slide
": alternate pick
b: bend
r: release bend
v: vibrato
x: muted string

|-----------------------------------------------------|
|-----------------------------------------------------|
|-------4h5p4p2p0-----4-/17-16-14----17-16-14----16\--|
|-----------------4p0-------------17----------17------| x2
|-----------------------------------------------------|
|--/19\-----------------------------------------------|


|-----------------------------------------------------|
|-----------------------------------------------------|
|-----------------------------------------------------|
|-------------9--9-9-9-9------------9--9-9-9-9-10-10--|
|-----------------------------------------------------|
|--7--7-7-7-7------------7--7-7-7-7-------------------|

   " " " " " " " " " " "         
|--------------------------|
|--------------8-10-11-12--|
|-------7-9-11-------------|
|--9-10--------------------|
|--------------------------|
|--------------------------|

                              ""  
|-------------------------------------------------------------|
|----------------------------/12------------------------------|
|--11-9-12--11--9-11--11-11------11-9-12--11-9-12-11--11-11\--|
|-------------------------------------------------------------|
|-------------------------------------------------------------|
|-------------------------------------------------------------|

                                                 " " " " " " " " " " " "
|-------------------------------------------------------------------------|
|--/12\-/15\-----------------8-7h8p7-----7--------------------------------|
|------------/9b11r9--7h9p7\---------9-7---9-7-6-9-7-6-9-7-6-7-5-4-7-5-4--|
|-------------------------------------------------------------------------|
|-------------------------------------------------------------------------|
|-------------------------------------------------------------------------|


|---------------------------------------------------------|
|---------------------------------------------------------|
|------4-4--7-4-4--4-7-4h7p4-6v--6-6/7-7/9-9b11-9-7-6h7\--|
|--7v-----------------------------------------------------|
|---------------------------------------------------------|
|---------------------------------------------------------|

 
|---------------------------------------------------------------------------|
|---------------/15-12--14-15-12-14-15-12--15b17r15-15-12-10-10-8-7-7h8p7v--|
|--/7-4--/11-7--------------------------------------------------------------|
|---------------------------------------------------------------------------|
|---------------------------------------------------------------------------|
|---------------------------------------------------------------------------|


|---------------------------------------------------------|
|--20h22p20-19h20p19-17h19p17-15h17p15-14h15p14-12h14p12--|
|---------------------------------------------------------|
|---------------------------------------------------------|
|---------------------------------------------------------|
|---------------------------------------------------------|


|----------------------------------------------------|
|--15h17p15-14h15p14-12h14p12-10h12p10-8h10p8-7h8p7--|
|----------------------------------------------------|
|----------------------------------------------------|
|----------------------------------------------------|
|----------------------------------------------------|


|--------------------------------------------------|
|--------------------------------------------------|
|--14h16p14-12h14p12-11h12p11-9h11p9-7h9p7-6h7p6\--|
|--------------------------------------------------|
|--------------------------------------------------|
|--------------------------------------------------|


|-------------------------------------|
|-------------------------------------|
|--4-----------4-----4----------------|
|----7-5-4-------7-5---7-5-----4------|
|----------7-5-------------7-5---7-5--|
|-------------------------------------|


|--------------------------------------------------|
|--------------------------------------------------|
|---------7-7-9-9-9-9-10-10-10-10-14-14-14-14-14/--|
|---------x-x-x-x-x-x-x-x-x-x-x-x-x-x-x-x-x-x-x----|
|--5-5-5--5-5-7-7-7-7-9--9---9--9-12-12-12-12-12/--|
|--------------------------------------------------|


|--22p19----19-22p19----19-22p19----19-22p19----19-22\--|
|--------22----------22----------22----------22---------|
|-------------------------------------------------------|
|-------------------------------------------------------|
|-------------------------------------------------------|
|-------------------------------------------------------|

 \m/-_-\m/
comments
We did not receive enough feedback on this tab! Please rate:
print report bad tab
1 2 3 4 5
I want to post or [tab]
guest
You may want to rate the tab now too:
select rating
Please do not post tabs as comments. Select "correction" instead!