Oops, an error
Loading. Please wait.

Suicide And Redemption Tab

version 1
version 1

Whole song

392,159 views 162 this week
51 commentsread comments
1 2 3 4 5
x 126
add to favorites
launch autoscroll
font size
0
reset
how to read this tab
guitar tuner
Autoscroll
slow
fast
+/-
esc
set tempo
stop
Help us to improve Ultimate-Guitar.com Take our survey!
×
Author
Metallica
Suicide And Redemption
Tabbed by ExoM7 09/05/08
Updated 10/01/08 (thanks ibanezemg87)
Updated 12/01/08 (bunch of small stuff)

e|----------|
B|----------|
G|----------|
D|-4--4--5--|
A|-2--2--3--|
E|-2--2--3--| x6

e|-------------------------------------|
B|-------------------------------------|
G|-------------------------------------|
D|-4~--------4~---------4~---------4~--|
A|-2~--------2~---------2----------2~--|
E|-------------------------------------|

e|----------------------------------|
B|----------------------------------|
G|----------------------------------|
D|-------------4-4-------------4-4--|
A|-2-2-0-2-2-0-2p0-2-2-0-2-2-0-3p0--|
E|----------------------------------| x4
     [palm mute]     [palm mute]

e|----------------------    ---|
B|----------------------    ---|
G|-4---4---4------------    ---|
D|-4---4---4---4-4-4-4--    -4-|
A|-2-x-2-x-2-x-3-3-3-3--    -2-|
E|---------------------- x3 ---|

(bass riff)

e|-----------------------------|
B|-----------------------------|
G|-7b^8r7-4--------------------|
D|-7--8-7-4-4-4-4-4-4-4-4-4-4--|
A|----------0-2-2-0-2-2-0-2-0--|
E|-----------------------------| x4
              [palm muted-----|

e|-------------------------------------------------------------|
B|-------------------------------------------------------------|
G|-7-7-7-7-7-7-7-7-7-7-7-7-14-14-14-14-14-14-14-14-14-14-14-14-|
D|-------------------------------------------------------------|
A|-5-5-5-5-5-5-5-5-5-5-5-5-12-12-12-12-12-12-12-12-12-12-12-12-|
E|-------------------------------------------------------------|

e|-----------------------------|
B|-----------------------------|
G|-7b^8r7-4--------------------|
D|-7--8-7-4-4-4-4-4-4-4-4-4-4--|
A|----------0-2-2-0-2-2-0-2-0--|
E|-----------------------------| x4
              [palm muted-----|

e|-------------------------------------------------------------|
B|-------------------------------------------------------------|
G|-7-7-7-7-7-7-7-7-7-7-7-7-14-14-14-14-14-14-14-14-14-14-14-14-|
D|-------------------------------------------------------------|
A|-5-5-5-5-5-5-5-5-5-5-5-5-12-12-12-12-12-12-12-12-12-12-12-12-|
E|-------------------------------------------------------------|


e|------------------------------------------|
B|------------------------------------------|
G|------------------------------------------|
D|---------------5/4---5/4------------------|
A|-4-4-2-4-2-4-x-3/2-x-3/2-4-4-2-4-2-4-2-4--|
E|-2-2-0-2-0-2-x-3-2-x-3-2-2-2-0-2-0-2-0-2--| x2

e|--------------------------|
B|--------------------------|
G|--------------------------|
D|--------------------------|
A|-7-7-7-7-7-7-8-8-8-8-8-8--|
E|--------------------------|
     [palm muted--------------|

e|------------------------------------------|
B|------------------------------------------|
G|------------------------------------------|
D|---------------5/4---5/4------------------|
A|-4-4-2-4-2-4-x-3/2-x-3/2-4-4-2-4-2-4-2-4--|
E|-2-2-0-2-0-2-x-3-2-x-3-2-2-2-0-2-0-2-0-2--|

e|--------------------------------------------|
B|--------------------------------------------|
G|-----------------------------------------8--|
D|-------------------------------------7-8----|
A|-7-7-7-7-7-7-8-8-8-8-8-8-9-9-9-9-9-9--------|
E|--------------------------------------------|
     [palm muted, gradually release-------------|

e|-----------------------------|
B|-----------------------------|
G|-7b^8r7-4--------------------|
D|--------4-4-4-4-4-4-4-4-4-4--|
A|----------0-2-2-0-2-2-0-2-0--|
E|-----------------------------|
              [palm muted-----|

e|-----------------------------|
B|-----------------------------|
G|-7b^8r7-4--------------------|
D|-7--8-7-4-4-4-4-4-4-4-4-4-4--|
A|----------0-2-2-0-2-2-0-2-0--|
E|-----------------------------| x3
              [palm muted-----|

---

Guitar 2 (delay)
e|---------------------------------|
B|---------------------------------|
G|-------7--(7)------7--(7)------7-|
D|-9--(9)------9--(9)------9--(9)--|
A|---------------------------------|
E|---------------------------------| x4

e|-----------------------------|
B|-----------------------------|
G|-7b^8r7-4--------------------|
D|-7--8-7-4-4-4-4-4-4-4-4-4-4--|
A|----------0-2-2-0-2-2-0-2-0--|
E|-----------------------------| x4
              [palm muted-----|

---

e|-------------------------------------------------------------|
B|-------------------------------------------------------------|
G|-7-7-7-7-7-7-7-7-7-7-7-7-14-14-14-14-14-14-14-14-14-14-14-14-|
D|-------------------------------------------------------------|
A|-5-5-5-5-5-5-5-5-5-5-5-5-12-12-12-12-12-12-12-12-12-12-12-12-|
E|-------------------------------------------------------------|

---

Guitar 2 (delay)
e|---------------------------------|
B|---------------------------------|
G|-------7--(7)------7--(7)------7-|
D|-9--(9)------9--(9)------9--(9)--|
A|---------------------------------|
E|---------------------------------| x4

e|-----------------------------|
B|-----------------------------|
G|-7b^8r7-4--------------------|
D|-7--8-7-4-4-4-4-4-4-4-4-4-4--|
A|----------0-2-2-0-2-2-0-2-0--|
E|-----------------------------| x4
              [palm muted-----|

---

e|-------------------------------------------------------------|
B|-------------------------------------------------------------|
G|-7-7-7-7-7-7-7-7-7-7-7-7-14-14-14-14-14-14-14-14-14-14-14-14-|
D|-------------------------------------------------------------|
A|-5-5-5-5-5-5-5-5-5-5-5-5-12-12-12-12-12-12-12-12-12-12-12-12-|
E|-------------------------------------------------------------|

e|------------------------------------------|
B|------------------------------------------|
G|------------------------------------------|
D|---------------5/4---5/4------------------|
A|-4-4-2-4-2-4-x-3/2-x-3/2-4-4-2-4-2-4-2-4--|
E|-2-2-0-2-0-2-x-3-2-x-3-2-2-2-0-2-0-2-0-2--| x2

e|--------------------------------------------|
B|--------------------------------------------|
G|-----------------------------------------8--|
D|-------------------------------------7-8----|
A|-7-7-7-7-7-7-8-8-8-8-8-8-9-9-9-9-9-9--------|
E|--------------------------------------------|
     [palm muted, gradually release-----------|

e|-----------------------------|
B|-----------------------------|
G|-7b^8r7-4--------------------|
D|--------4-4-4-4-4-4-4-4-4-4--|
A|----------0-2-2-0-2-2-0-2-0--|
E|-----------------------------|
              [palm muted---|

e|-----------------------------|
B|-----------------------------|
G|-7b^8r7-4--------------------|
D|-7--8-7-4-4-4-4-4-4-4-4-4-4--|
A|----------0-2-2-0-2-2-0-2-0--|
E|-----------------------------| x3
              [palm muted---|

e|-------------------------|
B|-------------------------|
G|------------------7-8-9--|
D|-2-2--2-2--2--2-2--------|
A|-2-2--2-2--2--2-2-5-6-7--|
E|-0-0--0-0--0--0-0--------| x4

e|-------------------------------------------|
B|-------------------------------------------|
G|------------------7-8-9-----5-----7--------|
D|-5-5--5-5--5--5-5--------5--5--7--7--7-6-5-|
A|-3-3--3-3--3--3-3-5-6-7--5--3--7--5--5-4-3-|
E|-3-3--3-3--3--3-3--------3-----5-----------|

e|-------------------------|
B|-------------------------|
G|------------------7-8-9--|
D|-2-2--2-2--2--2-2--------|
A|-2-2--2-2--2--2-2-5-6-7--|
E|-0-0--0-0--0--0-0--------| x2

e|--------------------------------------------------------|
B|--------------------------------------------------------|
G|------------------7-8-9-----5-----7---------------------|
D|-5-5--5-5--5--5-5--------5--5--7--7--7-6-5--5-4-3--2--5-|
A|-3-3--3-3--3--3-3-5-6-7--5--3--7--5--5-4-3--3-2-1--0--3-|
E|-3-3--3-3--3--3-3--------3-----5------------------------|

---

e|----|
B|----|
G|----|
D|-4--|
A|-2--|
E|----|

Guitar 1 (clean)
e|-2----2-----------------2---------------2--|
B|-3----3------3p2--------3--2-2h3p2------3--|
G|-4----4----4-----4------4---------4-----4--|
D|------4--4------------4---------------4----|
A|--------------------2---------------2------|
E|-------------------------------------------|

---

Guitar 2 (lead)
e|------------------------------------|
B|-----7-----7---------7--------------|
G|-7/9---9-7---9---7/9---9/6-9-7/6----|
D|---------------------------------9--|
A|------------------------------------|
E|------------------------------------| x2

Guitar 1 (clean)
     D       A      Bm
e|-----2-----------------------------|
B|-----3-------2------3-3p2-------3--|
G|---2---------2------4-----4-----4--|
D|-0---------2------4-----------4----|
A|---------0------2-----------2------|
E|-----------------------------------| x2

---

Guitar 2
e|---------------------------------|
B|-----7-----7/10~------7----------|
G|-7/9---9-7--------7/9---9-7/6----|
D|------------------------------9--|
A|---------------------------------|
E|---------------------------------|

Guitar 1 (clean)
     Bm     A      E
e|-----------------------------|
B|-----3------2----------------|
G|-----4------2------1------1--|
D|---4------2--------2------2--|
A|-2------0--------2------2----|
E|---------------0------0------|

---

Guitar 2
e|----------------------------------------------|
B|----------------------------------------------|
G|----------------------------------------------|
D|-9~------------9------9----------------9------|
A|----------7-10---7-10-------------7-10---7-10-|
E|----------------------------------------------|

Guitar 1 (turn up volume on guitar, or turn on distortion)
e|-------------------------------------|
B|-------------------------------------|
G|-------------7-8-9-------------7-8-9-|
D|-2-2--2-2--2-------2-2--2-2--2-------|
A|-2-2--2-2--2-5-6-7-2-2--2-2--2-5-6-7-|
E|-0-0--0-0--0-------0-0--0-0--0-------|

---

Guitar 2
e|--------------------------------------------------------------|
B|-8~-----8-7~---7-7h8p7-5~---5---------5~-------5----5-7--5-7--|
G|------------------------------7-5-5-7------5-7----7-----------|
D|--------------------------------------------------------------|
A|--------------------------------------------------------------|
E|--------------------------------------------------------------|

Guitar 3
e|-7~-------7~--------------------------------------------------|
B|-----------------------8~-------------8~----------------------|
G|--------------------------------------------------------------|
D|--------------------------------------------------------------|
A|--------------------------------------------------------------|
E|--------------------------------------------------------------|

Guitar 1
e|-------------------------|
B|-------------------------|
G|------------------7-8-9--|
D|-2-2--2-2--2--2-2--------|
A|-2-2--2-2--2--2-2-5-6-7--|
E|-0-0--0-0--0--0-0--------| x2

e|-------------------------------------------|
B|-------------------------------------------|
G|------------------7-8-9-----5-----7--------|
D|-5-5--5-5--5--5-5--------5--5--7--7--7-6-5-|
A|-3-3--3-3--3--3-3-5-6-7--5--3--7--5--5-4-3-|
E|-3-3--3-3--3--3-3--------3--3--5-----------|

---

Guitar 2
e|---------------------------------------------------------|
B|-8~------8-8-----8-8-----7~------7-7-----7-7h8p7-5-------|
G|-----4-4-----4-4-----4-4-----4-4-----4-4------------7-5~-|
D|---------------------------------------------------------|
A|---------------------------------------------------------|
E|---------------------------------------------------------|

Guitar 3
e|-7~-------7~---------------|
B|-----------------------8~--|
G|---------------------------|
D|---------------------------|
A|---------------------------|
E|---------------------------|

Guitar 1
e|-------------------------|
B|-------------------------|
G|-------------------------|
D|-2-2--2-2--2--2-2--------|
A|-2-2--2-2--2--2-2-5-6-7--|
E|-0-0--0-0--0--0-0--------| x2

e|------------------------|
B|------------------------|
G|------------------7-8-9-|
D|-5-5--5-5--5--5-5-------|
A|-3-3--3-3--3--3-3-5-6-7-|
E|-3-3--3-3--3--3-3-------|

---

Guitar 2/Guitar 3
e|-------------------------------------|
B|-----5-------5---5-------5---7-5---5-|
G|-5-7---7-5-7---7---7-5-7---7-----7---|
D|-------------------------------------|
A|-------------------------------------|
E|-------------------------------------|

Guitar 1
e|-------------------|
B|-------------------|
G|----5-----7--------|
D|-5--5--7--7--7-6-5-|
A|-5--3--7--5--5-4-3-|
E|-3-----5-----------|

---

Guitar 2
e|---------------------------------------|
B|-7~------7-----7---------7-------------|
G|-----7/9---9-7---9---7/9---9/6-9-7/6---|
D|-------------------------------------9-|
A|---------------------------------------|
E|---------------------------------------|

Guitar 1
e|------------------------------------------------------|
B|------------------------------------------------------|
G|------------------------------------------------------|
D|-7---7---7---7----------------------------------------|
A|-5555555555555-7---7---7---7-9---9--------------------|
E|---------------5555555555555-77777777-2-0-2-3-2-0-2-3-|

---

Guitar 2
e|---------------------------------------|
B|---------7-----7---------7-------------|
G|-7~--7/9---9-7---9---7/9---9/6-9-7/6---|
D|-------------------------------------9-|
A|---------------------------------------|
E|---------------------------------------|

Guitar 1
e|------------------------------------------------------|
B|------------------------------------------------------|
G|------------------------------------------------------|
D|-7---7---7---7----------------------------------------|
A|-5555555555555-7---7---7---7-9---9--------------------|
E|---------------5555555555555-77777777-2-0-2-3-2-0-2-3-|

---

Guitar 2
e|------------------------------------|
B|-7~------7-----7/10~------7---------|
G|-----7/9---9-7--------7/9---9-7/6---|
D|----------------------------------9-|
A|------------------------------------|
E|------------------------------------|

Guitar 1
e|-----------------------------------------------------------------|
B|-----------------------------------------------------------------|
G|-----------------------------------------------------------------|
D|-4---4---4---4-2---2---------------------------------------------|
A|-2222222222222-00000000-----------------2---2--------------------|
E|------------------------2-0-2-3-2-0-2-3-00000000-2-0-2-3-2-0-2-3-|

---

Guitar 2
e|---------------------------------|
B|-----------------7-5-7-8-7-5-7-8-|
G|-7-6-7-9-7-6-7-9-----------------|
D|---------------------------------|
A|---------------------------------|
E|---------------------------------|

Guitar 1
e|---------------------------------|
B|---------------------------------|
G|---------------------------------|
D|---------------------------------|
A|---------------------------------|
E|-2-0-2-3-2-0-2-3-2-0-2-3-2-0-2-3-|

---

Guitar 1
e|-----------------------------------|
B|-----------------------------------|
G|-----------------------------------|
D|---------------------------------4-|
A|---------------------------------2-|
E|-2-0-2-3-2-0-2-3-2-0-2-3-2-0-2-3-2-|
     [palm mute----]

(bass + drum break)

e|-----------------|
B|-----------------|
G|-----------------|
D|-5-5--4-------4--|
A|-3-3--2~------2--|
E|-3-3--2-------2--|

e|----------------------------------|
B|----------------------------------|
G|----------------------------------|
D|-------------4-4-------------4-4--|
A|-2-2-0-2-2-0-2p0-2-2-0-2-2-0-3p0--|
E|----------------------------------| x4
     [palm mute]     [palm mute]

---

Guitar 2
e|------------------------------------------|
B|------------------------------------------|
G|------------------------------------------|
D|------------------------------------------|
A|------------------------------------------|
E|-7~---5-8-5-7~---5-8-5-7~---5-8-5h7p5/2~--| x2

Guitar 1
e|----------------------------------|
B|----------------------------------|
G|----------------------------------|
D|-------------4-4-------------4-4--|
A|-2-2-0-2-2-0-2p0-2-2-0-2-2-0-3p0--|
E|----------------------------------| x4
     [palm mute]     [palm mute]

---

e|----------------------|
B|----------------------|
G|----------------------|
D|-4---4---4---4-4-4-4--|
A|-2-x-2-x-2-x-3-3-3-3--|
E|----------------------| x4

--- Solo

e|-------------8---------8-------------------------8---------8-------------|
B|---------------12-10-8---12-10-8-12~---------------12-10-8---12-10-8-12~-|
G|-------------------------------------------------------------------------|
D|-9^(9)--7-9~--------------------------9^(9)-7-9~-------------------------|
A|-------------------------------------------------------------------------|
E|-------------------------------------------------------------------------|

e|------------------------------------------------|
B|------------------------------------------------|
G|------------------------------------------------|
D|-----------9-9-9-9-9-----------9-9-9-9-9-10-10^-|
A|------------------------------------------------|
E|-7-7-7-7-7-----------7-7-7-7-7------------------|

e|---------------------------------------------------------------------------------|
B|-------------------------------------------------8-8-8-8-10-10-10-10-11-11-11-11-|
G|---------------------7-7-7-7-9-9-9-9-11-11-11-11---------------------------------|
D|-9-9-9-9-10-10-10-10-------------------------------------------------------------|
A|---------------------------------------------------------------------------------|
E|---------------------------------------------------------------------------------|

e|-----------------------------------------------------------------------|
B|-12-12-12-12///--------------------12-12-12-12///----------------------|
G|-----------------11-9-12-11--9-11-----------------11-9-12--11-9-12-11~-|
D|-----------------------------------------------------------------------|
A|-----------------------------------------------------------------------|
E|-----------------------------------------------------------------------|
     [tremolo pick]                    [tremolo pick]

e|--------------------------------------------------------------------------|
B|-12v--15v--------------------8-7h8p7-----7--------------------------------|
G|-----------9^(11)----7h9p7-----------9-7---9-7-6-9-7-6-9-7-6-7-6-4-7-6-4--|
D|--------------------------------------------------------------------------|
A|--------------------------------------------------------------------------|
E|--------------------------------------------------------------------------|
     [whammy]

e|------------------------------------------|
B|------------------------------------------|
G|------4-4-7-7-4-4--4-7-4-7p4-6~---6-6-7-7-|
D|-7~---------------------------------------|
A|------------------------------------------|
E|------------------------------------------|

e|-22-19-17-19-22-19-17-19-22-19-17-19-22-19-17-19-22-|
B|----------------------------------------------------|
G|----------------------------------------------------|
D|----------------------------------------------------|
A|----------------------------------------------------|
E|----------------------------------------------------|

--- Wah

e|-------------------------------------------------|
B|-4---2--------------4--4--4-------------------2--|
G|-4^----4p2--------2-4^-4^-4^-2---2---2-4^---2----|
D|-----------4--2h4--------------4---4------4------|
A|-------------------------------------------------|
E|-------------------------------------------------| x2

e|-2~-----------------------------|
B|----5--2---------2--------------|
G|---------4-2---2---4-2~----2-4--|
D|-------------4-----------4------|
A|--------------------------------|
E|--------------------------------| x3

e|---------------------------------------------|
B|-2-------2--------2--------2--------2--------|
G|---4p2-----4p2------4p2------4p2------4p2----|
D|-------4-------4--------4--------4--------4--|
A|---------------------------------------------|
E|---------------------------------------------|

e|------------------------------------------------------------------|
B|------------------------------------------------------------------|
G|---2h4p2---2h4p2---2h4p2---2h4p2---2h4p2----2h4p2---2h4p2---2h4p2-|
D|-4-------4-------4-------4-------4--------4-------4-------4-------|
A|------------------------------------------------------------------|
E|------------------------------------------------------------------|

e|-----------------------------------------------------------------------------------|
B|-----------------------------------------------------------------------------------|
G|---4h5p4---5h7p5---7h9p7----9h11p9----11h12p11----12h14p12----14h16p14----16h17p16-|
D|-5-------7-------9-------10--------12----------14----------16----------17----------|
A|-----------------------------------------------------------------------------------|
E|-----------------------------------------------------------------------------------|

---

Guitar 2 (wah end)
e|---------------------------------|
B|-10^-----------------------------|
G|-10^-----------------------------|
D|---------------------------------|
A|---------------------------------|
E|---------------------------------|

Guitar 1
e|---------------------------------|
B|---------------------------------|
G|---------------------------------|
D|-----------------5---------------|
A|-2-0-2-3-2-0-2-3---3-2-0-2-3-2-0-|
E|---------------------------------|

---

e|---------------------------------|
B|---------------------------------|
G|---------------------------------|
D|-----------------5---------------|
A|-2-0-2-3-2-0-2-3---3-2-0-2-3-2~--|
E|---------------------------------|

e|---------------------------------|
B|---------------------------------|
G|---------------------------------|
D|---------------------------------|
A|-----------------5---------------|
E|-2-0-2-3-2-0-2-3---3-2-0-2-3-2-0-|

e|---------------------------------|
B|---------------------------------|
G|---------------------------------|
D|---------------------------------|
A|-----------------5---------------|
E|-2-0-2-3-2-0-2-3---3-2-0-2-3-2~--|

e|---------------------------------|
B|---------------------------------|
G|---------------------------------|
D|-----------------5---------------|
A|-2-0-2-3-2-0-2-3---3-2-0-2-3-2-0-|
E|---------------------------------|

e|---------------------------------|
B|---------------------------------|
G|---------------------------------|
D|-----------------5---------------|
A|-2-0-2-3-2-0-2-3---3-2-0-2-3-2~--|
E|---------------------------------|

e|---------------------------------|
B|---------------------------------|
G|-----------------2---------------|
D|---------------------------------|
A|-4-2-4-5-4-2-4-5---5-4-2-4-5-4-2-|
E|---------------------------------|

e|---------------------------------|
B|---------------------------------|
G|-----------------2---------------|
D|---------------------------------|
A|-4-2-4-5-4-2-4-5---5-4-2-4-5-4~--|
E|---------------------------------|

---

Guitar 1
e|----------------------------------------------------------------------------|
B|----------------------------------------------------------------------------|
G|----------------------------------------------------------------------------|
D|----------------------------------------------------------------------------|
A|-6-4-6-7-6-4-6~--7-5-7-8--7-5-7~--8--7-8~---9--8--9~---10-9--10~--11-10-11~-|
E|----------------------------------------------------------------------------|

Guitar 2
e|----------------------------------------------------------------------------|
B|----------------------------------------------------------------------------|
G|----------------------------------------------------------------------------|
D|-8-6-8-9-8-6-8~--9-7-9-10-9-7-9~--10-9-10~--11-10-11~--12-11-12~--13-12-13~-|
A|----------------------------------------------------------------------------|
E|----------------------------------------------------------------------------|

---

e|--------------------------------------------|
B|--------------------------------------------|
G|-----------------------------------------8--|
D|-------------------------------------7-8----|
A|-7-7-7-7-7-7-8-8-8-8-8-8-9-9-9-9-9-9--------|
E|--------------------------------------------|
     [palm muted, gradually release-------------|

(B feedback in background)
e|-----------------------------|
B|-----------------------------|
G|-7b^8r7-4--------------------|
D|--------4-4-4-4-4-4-4-4-4-4--|
A|----------0-2-2-0-2-2-0-2-0--|
E|-----------------------------|
              [palm muted-----|

e|-----------------------------|
B|-----------------------------|
G|-7b^8r7-4--------------------|
D|-7--8-7-4-4-4-4-4-4-4-4-4-4--|
A|----------0-2-2-0-2-2-0-2-0--|
E|-----------------------------| x3
              [palm muted-----|

---

Guitar 1
e|-------------------------------------------------------------|
B|-------------------------------------------------------------|
G|-7-7-7-7-7-7-7-7-7-7-7-7-14-14-14-14-14-14-14-14-14-14-14-14-|
D|-------------------------------------------------------------|
A|-5-5-5-5-5-5-5-5-5-5-5-5-12-12-12-12-12-12-12-12-12-12-12-12-|
E|-------------------------------------------------------------|

Guitar 2
e|-------------------------------------------------------------|
B|-------------------------------------------------------------|
G|-7-7-7-7-7-7-7-7-7-7-7-7-14-14-14-14-14-14-14-14-14-14-14-14-|
D|-------------------------------------------------------------|
A|-5-5-5-5-5-5-5-5-5-5-5-5-12-12-12-12-12-12-12-12-12-12-12-12-|
E|-------------------------------------------------------------|

---

e|------------------|
B|------------------|
G|------------------|
D|------------------|
A|-8-7---5-----5----|
E|-----7---7-6---5--| x2

---

Guitar 1
e|-------------------|
B|-------------------|
G|-------------------|
D|-------------------|
A|--8-7---5-----5----|
E|------7---7-6---5--| x2

Guitar 2
e|-------------------|
B|-------------------|
G|-10-9---7-----7----|
D|------9---9-8---7--|
A|-------------------|
E|-------------------| x2

---

e|-------|
B|-------|
G|-10-9--|
D|-10-9--|
A|-8--7--|
E|-8--7--| x4 (drum fills, hold second time)

---

Guitar 1
e|------------------|
B|------------------|
G|------------------|
D|------------------|
A|-8-7---5-----5----|
E|-----7---7-6---5--| x3

Guitar 2
e|-------------------|
B|-------------------|
G|-10-9---7-----7----|
D|------9---9-8---7--|
A|-------------------|
E|-------------------| x3

---

e|----------------------------|
B|----------------------------|
G|-10-9---7-------------------|
D|-10-9-9-7-8-7-5-3~------2-2-|
A|-8--7-9-5-8-7-5-3~------2-2-|
E|------7---6-5-3-1~------0-0-|

e|--------------------------------------|
B|--------------------------------------|
G|-6-6-4-6-4-6-------------6-6-4-6-4-6--|
D|-6-6-4-6-4-6-x-5-4-x-5-4-6-6-4-6-4-6--|
A|-4-4-2-4-2-4-x-5-4-x-5-4-4-4-2-4-2-4--|
E|-4-4-2-4-2-4-x-3-2-x-3-2-4-4-2-4-2-4--| x2

e|--------------------------------|
B|--------------------------------|
G|-6-6-4-6-4-6--------------------|
D|-6-6-4-6-4-6-x-5-4---4-3---3-2--|
A|-4-4-2-4-2-4-x-5-4-x-4-3-x-3-2--|
E|-4-4-2-4-2-4-x-3-2-x-2-1-x-1-0--| repeat until end, fade out



************************************

| x    Dead note
| (n)  Ghost note
| h    Hammer-on
| p    Pull-off
| r    Release
| /    Slide up
| ~    Vibrato 

************************************
Suggest correction
comments
print report bad tab
51 comments total. Showing first comments.
+3 reply
iplayguitar! 10 Sep 06, 2008 11:04 PM

Great tab dude keep it up

+5 reply
Exo M7 672 Sep 07, 2008 02:12 PM

Just so anyone reading this knows, I finished the interlude and the first solo so the only thing left to be done is the wah wah solo...it should all be up tomorrow on UG :D

+3 reply
haosama 10 Sep 07, 2008 06:21 PM

Thanks man. You're awesome.

guest
You may want to rate the tab now too:
select rating
Wanna post a correction for this tab? Suggest correction