Oops, an error
Loading. Please wait.

Suicide And Redemption Bass Tab

version 2
version 2

Whole song

19,190 views 9 this week
8 commentsread comments
1 2 3 4 5
accurate
x 9
add to favorites
launch autoscroll
font size
0
reset
guitar tuner
Tab Pro tools
  • play this tab
  • loop segment
  • change instrument
  • show fretboard
  • metronome
×
Best way to learn
"Suicide And Redemption"
Autoscroll
slow
fast
+/-
esc
set tempo
stop
Contributor
Suicide & Redemption
Metallica
Death Magnetic
Bass Tab
Tuning: Standard (B, E, A, D, G) and (E, A, D, G)

This song uses the fifth string on a bass (B), so I put those parts into the
 "five string tab format".

Don't have a five string?  Not to worry!  I provide step-by-step instructions
 on how to tune your bass down to match the sound of a five string.

1. Tune your bass to standard tuning (E, A, D, G)
2. Match the 10th fret of the 4th string to the open 3rd string.
3. Match the 5th fret of the 4th string to the 3rd open string.
4. Match the 5th fret of the 3rd string to the 2nd open string.
5. Match the 5th fret of the 2nd string to the 1st open string.

The 3rd, 4th, and 5th steps are the same as tuning to standard, except each
 string is one octave lower then they would be in standard.

NOTE:  The sound quality of the lower tuning isn't as good as playing with an
 actual 5th string.  For best performance, use a five string.

0:00                                   (x16)
|------------------------------------------|
|-*--------------------------------------*-|
|-*--------------------------------------*-|
|------------------------------------------|
|--11---0-h9p---11---0-h9p---12--0h9ph11p--|

0:52                            (x4)
|*---------------------------------|
|-*------------------------------*-|
|-*5/6\5---2---0-2-2--0-2-0--2-2-*-|
|*---------------------------------|

1:04
|----------------------------------------------------------------------|
|----------------------------------------------------------------------|
|--5-5-5-5-5-5-5-5-5-5-5-5-5-5-5-5-12-12-12-12-12-12-12-12-12-12-12-12-|
|----------------------------------------------------------------------|

-----------*|
------------|
12-12-12-12-|
-----------*|

1:28                                                  1:40
|----------------------------------------------------|------------------|
|-*------------------------------------------------*-|------------------|
|-*-------------------3-2---3-2--------------------*-|------------------|
|--2--2--0-2---0-2--0-----0------2-2--0-2--0-2--0-2--|--12-12-12--12-12-|

------------------------|
------------------------|
------------------------|
12--13-13-13--13-13-13--|

1:43                                                  1:48
|----------------------------------------------------|------------------|
|----------------------------------------------------|------------------|
|---------------------3-2---3-2----------------------|------------------|
|--2--2--0-2---0-2--0-----0------2-2--0-2--0-2--0-2--|--12-12-12--12-12-|

-----------------------------------------------------------|
-----------------------------------------------------------|
-----------------------------------------------------------|
12--13-13-13-13--13-13-13--14-14-14--14-14-14--15--16--17--|

1:51                            (x8)
|----------------------------------|
|-*------------------------------*-|
|-*5/6\5---2---0-2-2--0-2-0--2-2-*-|
|----------------------------------|

2:15
|----------------------------------------------------------------------|
|----------------------------------------------------------------------|
|--5-5-5-5-5-5-5-5-5-5-5-5-5-5-5-5-12-12-12-12-12-12-12-12-12-12-12-12-|
|----------------------------------------------------------------------|

------------|
------------|
12-12-12-12-|
------------|

2:21                            (x4)
|----------------------------------|
|-*------------------------------*-|
|-*5/6\5---2---0-2-2--0-2-0--2-2-*-|
|----------------------------------|

2:34
|----------------------------------------------------------------------|
|----------------------------------------------------------------------|
|--5-5-5-5-5-5-5-5-5-5-5-5-5-5-5-5-12-12-12-12-12-12-12-12-12-12-12-12-|
|----------------------------------------------------------------------|

------------|
------------|
12-12-12-12-|
------------|

2:39                                                  2:52
|----------------------------------------------------|------------------|
|-*------------------------------------------------*-|------------------|
|-*-------------------3-2---3-2--------------------*-|------------------|
|--2--2--0-2---0-2--0-----0------2-2--0-2--0-2--0-2--|--12-12-12--12-12-|

-----------------------------------------------------------|
-----------------------------------------------------------|
-----------------------------------------------------------|
12--13-13-13-13--13-13-13--14-14-14--14-14-14--15--16--17--|

2:55                            (x4)
|----------------------------------|
|-*------------------------------*-|
|-*5/6\5---2---0-2-2--0-2-0--2-2-*-|
|----------------------------------|

3:07                             (x4) 3:20
|-----------------------------------|----------------------------------|
|-*-------------------------------*-|----------------------------------|
|-*-------------------------------*-|----------------------------------|
|--0--0---0--0---0---0--10--11--12--|--7--7---7--7---7---7--10--11--12-|

3:22
|-------------------------------|
|-------------------------------|
|-------------------------------|
|--7---9-10-0-7--9-10---10-9-8--|

3:26                                 3:31
|-----------------------------------|----------------------------------|
|-*-------------------------------*-|----------------------------------|
|-*-------------------------------*-|----------------------------------|
|--0--0---0--0---0---0--10--11--12--|--7--7---7--7---7---7--10--11--12-|

3:34
|-------------------------------|
|-------------------------------|
|-------------------------------|
|--7---9-10-0-7--9-10---10-9-8--|

3:38                             3:51
|-------------------------------|---------------------------------------|
|-------------------------------|-*-------------------------------------|
|-------------------------------|-*---------------------------2-(2)-----|
|--7-7-7--8--7--7-(7)-----------|--0---0-0-0--0-0-0---0--0--0-----------|

                                             4:16
---------------------------------------------|--------------------------|
-------------------------------------------*-|--------------------------|
---3---2-2-2--2-2-2--2-2-2-----2-2-2--2-2-2*-|--2-2--2-2-2--2--3-(3)----|
---------------------------0-2---------------|--------------------------|

--------------------------------|
--------------------------------|
------2-2-2--2-2-2--2-2-2--2-2--|
--------------------------------|

4:23                             (x4) 4:35
|-----------------------------------|----------------------------------|
|-*-------------------------------*-|----------------------------------|
|-*-------------------------------*-|----------------------------------|
|--0--0---0--0---0---0--10--11--12--|--7--7---7--7---7---7--10--11--12-|

4:38
|-------------------------------|
|-------------------------------|
|-------------------------------|
|--7---9-10-0-7--9-10---10-9-8--|

4:40                                 4:47
|-----------------------------------|----------------------------------|
|-*-------------------------------*-|----------------------------------|
|-*-------------------------------*-|----------------------------------|
|--0--0---0--0---0---0--10--11--12--|--7--7---7--7---7---7--10--11--12-|

4:52
|-----------------------------------------------------------------------|
|-*---------------------------------------------------------------------|
|-*---------------------------------------------------------------------|
|--9--9-9-9--9--9-9-9--9--9-9-9--9--9-9-9--5--5-5-5--5--5-5-5--5--5-5-5-|

                                                 5:10
------------------------------------------------|------------------------|
----------------------------------------------*-|------------------------|
-------------------------------------0-------0*-|------------------------|
-5--5-5-5--7--7-7-7--7--7-7-7--3-0-2---3-0-2----|--7--7-7-7--7--7-7-7--7-|

-----------------------------------------------------------------------|
-----------------------------------------------------------------------|
---------------------------------------------0-------0-----------------|
--7-7-7--7--7-7-7--5--5-5-5--5--5-5-5--3-0-2---3-0-2--0--0-0-0--0-0-0-0|

5:16             (x3) 5:20         5:22
|-------------------|-------------|-------------------|
|-*---------------*-|-Only-Guitar-|-------------------|
|-*------0-------0*-|-------------|--------0-------0--|
|--3-0-2---3-0-2----|-------------|--3-0-2---3-0-2----|

5:24                                   (x23)
|------------------------------------------|
|-*--------------------------------------*-|
|-*--------------------------------------*-|
|------------------------------------------|
|--11---0-h9p---11---0-h9p---12--0h9ph11p--|

6:29                            (x4)
|----------------------------------|
|-*------------------------------*-|
|-*5/6\5---2---0-2-2--0-2-0--2-2-*-|
|----------------------------------|
(Faster Tempo)

6:42
|------------------------------------------------------------------|
|------------------------------------------------------------------|
|------------------------------------------------------------------|
|-5-5-5-5-5-5-5-5-5-5-5-5-5-5-5-5-2-2-2-2-2-2-2-2-2-2-2-2-2-2-2-2--|

6:47                                       (x4)
|---------------------------------------------|
|-*-----------------------------------------*-|
|-*-----------------------------------------*-|
|---------------------------------------------|
|--12---0-h10p---12---0-h10p---13--0h10ph12p--|
(Use distortion)

6:59                            (x4)
|----------------------------------|
|-*------------------------------*-|
|-*5/6\5---2---0-2-2--0-2-0--2-2-*-|
|----------------------------------|
(Faster Tempo)

7:10
|----------------------------------------------------------------------|
|----------------------------------------------------------------------|
|--5-5-5-5-5-5-5-5-5-5-5-5-5-5-5-5-12-12-12-12-12-12-12-12-12-12-12-12-|
|----------------------------------------------------------------------|

------------|
------------|
12-12-12-12-|
------------|

7:16
|--------------------------------------|
|-*----------------------------------*-|
|-*----------------------------------*-|
|--3-0-2-3--3-0-2-3--5-4-0-5--5-4-0-5--|

7:22
|--------------------------------------|
|-*----------------------------------*-|
|-*----------------------------------*-|
|--2-0-1-2--2-0-1-2--4-3-0-4--4-3-0-4--|

7:28                                    7:33             (x4) 7:39
|--------------------------------------|--------------------|-----------|
|-*----------------------------------*-|-*----------------*-|-*---------|
|-*----------------------------------*-|-*----------------*-|-*---------|
|--3-0-2-3--3-0-2-3--5-4-0-5--5-4-0-5--|--7-6-0-7--7-6-0-7--|--9-8-9-10-|

            7:42       (x4) 7:44
-----------|--------------|-----|
---------*-|-*----------*-|-----|
---------*-|-*----------*-|-----|
-9-8-9-10--|--11--10--11--|--\--|

7:44
|----------------------------------------------------------------------|
|----------------------------------------------------------------------|
|----------------------------------------------------------------------|
|--12-12-12--12-12-12--13-13-13--13-13-13--14-14-14--14-14-14-15-16-17-|

7:48                            (x4)
|----------------------------------|
|-*------------------------------*-|
|-*5/6\5---2---0-2-2--0-2-0--2-2-*-|
|----------------------------------|

7:59
|----------------------------------------------------------------------|
|----------------------------------------------------------------------|
|--5-5-5-5-5-5-5-5-5-5-5-5-5-5-5-5-12-12-12-12-12-12-12-12-12-12-12-12-|
|----------------------------------------------------------------------|

             8:06
------------|-------------------------------|
------------|-------------------------------|
12-12-12-12-|-------------------------------|
------------|--0-----------------0----------|

8:11
|-------------------------|
|-*---------------------*-|
|-*7--6-----------------*-|
|-------0--6-5--0--4-(4)--|

8:18       8:21                        8:23
|---------|---------------------------|---------|
|---------|---------------------------|-*-----*-|
|--7---6--|--7---6--6-6-6-6--6-6-6-6--|-*7---6*-|
|---------|---------------------------|---------|

8:28                   (x3) 8:38
|-------------------------|------------------------------------|
|-*---------------------*-|------------------------------------|
|-*7--6-----------------*-|--7--6------------------------------|
|-------0--6-5--0--4-(4)--|-------0--5-4-3-2-1-(1)-------0--0--|

8:42
|------------------------------------------------------|
|-*--------------------------------------------------*-|
|-*--------------------------------------------------*-|
|------------------3-2--2-1--1-0-----------------------|
|--6-6--4-6--4-6-4----------------6-6-4-6--4--6--4--6--|

8:55
|---------------------------------|
|-*-----------------------------*-|
|-*----------------3-2--2-1--1-0*-|
|--6-6--4-6--4-6-4----------------|
This riff fades out
comments
print report bad tab
8 comments total. Showing first comments.
0 reply
Fender6 wrote on October 22 2008, 05:46 pm

I made a correction in the intro. If it did not show up yet, then here it is:

|------------------------------------------|
|-*--------------------------------------*-|
|-*--------------------------------------*-|
|------------------------------------------|
|--11---0-h9p---11---0-h9p---12--0h9ph11p--|

0 reply
Fender6 wrote on October 23 2008, 07:59 am

O.K., it did show up. Never mind!

ENJOY the tab!

0 reply
Exo M7 wrote on December 1 2008, 12:50 pm

Cool tab bro

I want to post or [tab]
guest
You may want to rate the tab now too:
select rating
Please do not post tabs as comments. Select "correction" instead!