Oops, an error
Loading. Please wait.

Sweet Amber Tab

version 1
version 1
7,207 views 1 this week
7 commentsread comments
1 2 3 4 5
x 9
add to favorites
launch autoscroll
font size
0
reset
how to read this tab
guitar tuner
Autoscroll
slow
fast
+/-
esc
set tempo
stop
Help us to improve Ultimate-Guitar.com Take our survey!
×
Artist: Metallica
Song: Sweet Amber
Album: St. Anger

Tabbed by: Ralph
E-mail: ralph_is_great@hotmail.com
This intro rules,  well the whole song rules actually. But heres the intro, enjoy


think its standard tuning

E--------------------------------------------------------------
B--------------------------------------------------------------
G--------------------------------------------------------------
D--------------------------------------------------------------
A--13----15--13-15-b18-----------13----15--13-15-b18-----------
E--------------------------------------------------------------


E--------------------------------------------------------------
B--------------------------------------------------------------
G--------------------------------------------------------------
D--------------------------------------------------------------
A--13----15--13-15-b18-----------13---15-----------------------
E--------------------------------------------------------------


E--------------------------------------------------------------
B--------------------------------------------------------------
G--------------------------------------------------------------
D-----x-xx--xx---1-1--3----xx--1--3----------------------------
A-----x-xx--xx---1-1--3----xx--1--3--8^------------------------
E-----x-xx--xx---1-1--3----xx--1--3--8^------------------------

This is as far as i got. I'm pretty sure thats how it goes. Long live metallica.

p.s. rob tujjillo looks like a monkey :P

| /  slide up
| \  slide down
| h  hammer-on
| p  pull-off
| ~  vibrato
| +  harmonic
| x  Mute note
====================================
Suggest correction
comments
print report bad tab
7 comments total. Showing first comments.
0 reply
metallica_dan 80 Jun 14, 2003 12:00 AM

its is right but all the songs on the album are tuned C G C F A d therefore u move every thing up 2 frets so i wud play it like this

d------------------------------
A------------------------------
F------------------------------
C--10-12-10h12-15b-------------
G------------------------------
C------------------------------

d-------------------------------
A-------------------------------
F-------------------------------
C-X-X-X-3-5-X-X-3-5--5b---------
G-X-X-X-3-5-X-X-3-5--5b---------
C-X-X-X-3-5-X-X-3-5-------------

0 reply
joe_klassen 10 Jun 16, 2003 12:00 AM

this is terrible......

0 reply
JamesV 61 Jun 19, 2003 12:00 AM

HE IS NOT A MONKEY!!!!! (oh, right, he LOOKS like one... he he :P)

guest
You may want to rate the tab now too:
select rating
Wanna post a correction for this tab? Suggest correction