Oops, an error
Loading. Please wait.

Sweet Amber Tab

version 3
version 3
3,747 views 6 this week
4 commentsread comments
1 2 3 4 5
accurate
x 10
add to favorites
launch autoscroll
font size
0
reset
how to read this tab
guitar tuner
Tab Pro tools
  • play this tab
  • loop segment
  • change instrument
  • show fretboard
  • metronome
×
Best way to learn
"Sweet Amber"
Autoscroll
slow
fast
+/-
esc
set tempo
stop
Contributor
Album: St. Anger
Tuning: Dropped C Tuning
Notes: The hammerons at the start could be slides or bends.
I guess it's up to u how u interpret them. Just warning you. The tab has been updated 
from the first version I submitted. Hopefully for the better. The song sounds like it's 
only got a few riffs which r just
repeated or varied.... n e way... Go Heavy Or Go Home!!! and as usual... have fun!!!

Intro (Clean Guitar)
D|----------------------------------|
A|----------------------------------|
F|-------------------------17b18r17-|
C|-15h17-17-----15h17------17b18r17-|
G|-15h17-17-----15h17---------------|
C|-0------------0--------0----------|

Intro (heavy)....this part x3..............|
D|---------|-------------------------------|-----------------------------|
A|---------|-------------------------------|-----------------------------|
F|---------|-------------------------------|-----------------------------|
C|-X--X-X--|---5\7-7---------5\7-----------|----5\7-7--------------------|
G|-X--X-X--|---3\5-5---------3\5-----8b-8/-|----3\5-5--------------------|
C|-X--X-X--|-0---------0-000-------0-------|-0---------0-000-0-0-000-0-0-|

Verse (guitar 1)
D|----------------------------------|
A|----------------------------------|
F|----------------------------------|
C|-5/7-7----------5/7---------------|
G|-3/5-5----------3/5-----8b--------|
C|--------0-000--------0------0-000-|
(Guitar 2)
D|-----------------------------------|
A|-----------------------------------|
F|-----------------------------------|
C|-------------------------15b-------|
G|-15/17-17--------15/17-------------|
C|-----------0-000-------0-----0-000-|

This part has an effect in the background like a heavy wah or sumthin...
D|---------------|
A|---------------|
F|-7----5---3--2-|
C|-7----5---2--2-|
G|-5----3---1--0-|
C|---------------|
Ohh and she holds my hand...

D|-----------------------------|
A|-----------------------------|
F|-----------------------------|
C|-0-xx-0-xx-0-xx-3-3-3-3--2---|
G|-0-00-0-00-0-00-3-3-3-3--2---|
C|-0-00-0-00-0-00-3-3-3-3--2---|
     ..   ..   ..

D|------------------|
A|------------------|
F|-7---5----4--3--2-|
C|-7---5----4--2--2-|
G|-5---3----2--1--0-|
C|------------------|
Ohh sweet amber...

D|--------------------------------|
A|--------------------------------|
F|--------------------------------|
C|--------------------------------|
G|-0-0-0-3--5--0-0-4\5-/4-0-------|
C|-0-0-0-3--5--0-0-4\5-/4-0---000-|
           How sweet are you?

The Bridge - Riff 1
D|---------------------------------------------------------------|
A|---------------------------------------------------------------|
F|-7--------7--------7-------10-9--------------------------------|
C|---------------------------------9-------9-------14------15-14-|
G|-5--------5--------5-------8--7--7-------7-------12------13-12-|
C|---00000----00000----00000---------00000---00000----0000-------|
She holds the pen that spells the end...

The Bridge - Riff 2
D|-----------------------------------------------------------|
A|-----------------------------------------------------------|
F|-----------------------------------------------------------|
C|-----------------------------------------------------------|
G|-0-0-2-0-0-0-2-0-0-0-2-0-3--2--2-2-3-2-2-2-3-2-2-2-7--8--7-|
C|-0-0-2-0-0-0-2-0-0-0-2-0-3--2--2-2-3-2-2-2-3-2-2-2-7--8--7-|

Finish with...
D|---------------------|
A|---------------------|
F|---------------------|
C|-6--5--3--6--5--3--0-|
G|-6--5--3--6--5--3--0-|
C|-6--5--3--6--5--3--0-|
Never as sweet as it seems

Thanx for looking at the tab... WHIPLASH!!! \m/
comments
print report bad tab
4 comments total. Showing first comments.
-1 reply
dead_kennedy wrote on June 28 2003, 12:00 am

its st anger

+1 reply
metallica_dan wrote on June 28 2003, 12:00 am

Good Tab

-1 reply
monkey_xxx2003 wrote on March 21 2005, 12:00 am

woah? sorry man but this is your only tab that is bad. sorry but i dont think this tab is accurate at all.you have the basic idea but all the notes are wrong. i know that in the introduction, jaymz plays the notes on a single string. if you watch the metallica st anger rehearsals DVD you will know what i am talking about. i will give you an outline of how the intro should be played. i have my guitar with me right here and now but it is not tuned to st anger so the frets are probably wrong but you will have a basic outline of how it is really played by jaymz.

---------------------
---------------------
-------------8b10r10-
-8-10---8h10---------
---------------------
--------------------- repeat.

the fret numbers are definetely wrong on that but you can play that figure with the notes on your tab. dont worry. you are still a kickass tabber and i will keep looking.

I want to post or [tab]
guest
You may want to rate the tab now too:
select rating
Please do not post tabs as comments. Select "correction" instead!