Oops, an error
Loading. Please wait.

Sweet Amber Tab

version 4
version 4
1,087 views 1 this week
1 commentread comment
1 2 3 4 5
worth learning
x 3
add to favorites
launch autoscroll
font size
0
reset
how to read this tab
guitar tuner
Tab Pro tools
  • play this tab
  • loop segment
  • change instrument
  • show fretboard
  • metronome
×
Best way to learn
"Sweet Amber"
Autoscroll
slow
fast
+/-
esc
set tempo
stop
Contributor
"Sweet Amber"

by Metallica
written by Hetfield/Ulrich/Hammett/Rock

available on "St. Anger" album

tabbed by Tero Saikkonen from Finland
tsslayer@luukku.com
www.pureheavymetal.cjb.net


Guitars Dropped-C tuning (Strings on D) 
(like all songs in "st. Anger" album, except "Dirty Window"(C# dropped-B)
"Invisible Kid"(A# dropped-G#)
 and "The Unnamed Feeling"(C dropped-A#))

6=C 3=F
5=G 2=A
4=C 1=D


INTRO
 /acoustic/
|-------------------------------------------|4|------------------------|
|-------------------------------------------|T|------------------------|
|-------------------------------------------|I|------------------------|
|-5---/7------------5--7---(1012-10)--------|M|-5---/7-----------------|
|-3---/5------------3--5----8-10-8----------|E|-3---/5-----------x--x--|
|-------------------------------------------|S|------------------x--x--|

 /distorted/
          ________________________________________________________________________
         |1,2,3 times                       |4th time                             |
|-------------------------------------------|-------------------------------------|
|-------------------------------------------|-------------------------------------|
|-------------------------------------------|-------------------------------------|
|-5---/7------------5--7----1012-10---10-10-|-------------------------------------|
|-3---/5------------3--5----8-10-8----8--8--|-------------------------------------|
|---------0--0-0-0--------------------------|-0--0-0-0--0--0--0-0-0--0--0--0-0-0--|



GTR I
|-------------------------------------------|-------------------------------------------|
|-------------------------------------------|-------------------------------------------|
|-------------------------------------------|-------------------------------------------|
|-5---/7------------5--7----1012-10---10-10-|-5---/7------------5--7----1012-10---10-10-|
|-3---/5------------3--5----8-10-8----8--8--|-3---/5------------3--5----8-10-8----8--8--|
|---------0--0-0-0--------------------------|---------0--0-0-0--------------------------|
|                                           |                                           |
|GTR II                                     |                                           |
|-------------------------------------------|-------------------------------------------|
|-------------------------------------------|-------------------------------------------|
|-------------------------------------------|-------------------------------------------|
|-------------------------------------------|-------------------------------------------|
|--------------------------------0----0--0--|--------------------------------0----0--0--|
|--------------------------------0----0--0--|--------------------------------0----0--0--|


GTR I
|-------------------------------------------|--------------------------------------------|
|-------------------------------------------|--------------------------------------------|
|-------------------------------------------|--------------------------------------------|
|-5---/7------------5--7----1012-10---10-10-|-5---/7-------------------------------------|
|-3---/5------------3--5----8-10-8----8--8--|-3---/5-------------------------------------|
|---------0--0-0-0--------------------------|---------0--0-0-0--0--0--0-0-0--0--0--0-0-0-|
|                                           |                                            |
|GTR II                                     |                                            |
|-------------------------------------------|--------------------------------------------|
|-------------------------------------------|--------------------------------------------|
|-------------------------------------------|--------------------------------------------|
|-------------------------------------------|--------------------------------------------|
|------0-------------------------0----0--0--|-------------------0-----0------0-----0-----|
|------0-------------------------0----0--0--|-------------------0-----0------0-----0-----|


MAINRIFF
            ________________________________________________________________________
           |1,2,3 times                       |4th time                            |
| |-------------------------------------------|------------------------------------|3 times
|o|-------------------------------------------|------------------------------------|o|(3th time
| |-------------------------------------------|------------------------------------| | GTR III
| |-5---/7------------5--7----1012-10---10-10-|------------------------------------| | plays
|o|-3---/5------------3--5----8-10-8----8--8--|------------------------------------|o| octave
| |---------0--0-0-0--------------------------|-0--0-0-0--0--0--0-0-0--0--0--0-0-0-| | higher)


VERSE ("wash your back so you won´t stab mine...")
            ________________________________________________________________________
           |1,2,3 times                       |4th time                             |
| |-------------------------------------------|-------------------------------------|2 times
|o|-------------------------------------------|-------------------------------------|o|
| |-------------------------------------------|-------------------------------------| |
| |-5---/7------------5--7----1012-10---10-10-|-------------------------------------| |
|o|-3---/5------------3--5----8-10-8----8--8--|-------------------------------------|o|
| |---------0--0-0-0--------------------------|-0--0-0-0--0--0--0-0-0--0--0--0-0-0--| |


("Ooh then she holds my hand...")
|---------------------------------------------|-------------------------------------------|
|---------------------------------------------|-------------------------------------------|
|---------------------------------------------|-------------------------------------------|
|-0-------------------------------------------|-5--------------------2--------------------|
|-0-------------------------------------------|-3--------------------0--------------------|
|-0-------------------------------------------|-------------------------------------------|
(GTR II plays 3 octave higher with effect)


|----------------------------------------------| -2-
|----------------------------------------------|  T
|----------------------------------------------|  I
|----------------------------------------------|  M
|-0----0--0----0--0----0--3--3--3--3--2--2--1--|  E
|-0----0--0----0--0----0--3--3--3--3--2--2--1--|  S


("Ooh then she holds my hand...")
|---------------------------------------------|-------------------------------------------|
|---------------------------------------------|-------------------------------------------|
|---------------------------------------------|-------------------------------------------|
|-0-------------------------------------------|-5--------------------2--------------------|
|-0-------------------------------------------|-3--------------------0--------------------|
|-0-------------------------------------------|-------------------------------------------|

("Using what i want to get what you want...")
|----------------------------------------------| -4-
|----------------------------------------------|  T
|----------------------------------------------|  I
|----------------------------------------------|  M
|-0----0--0----0--0----0--3--3--3--3--2--2--1--|  E
|-0----0--0----0--0----0--3--3--3--3--2--2--1--|  S


CHORUS
("Ooh sweet amber...")
|--------------------------------------------------------|
|--------------------------------------------------------|
|--------------------------------------------------------|
|--------------------------------------------------------|
|-0----------------3------2----------------8------7------|
|-0----------------3------2----------------8------7------|

                             (How sweet are you?...")
|------------------------------------------| -4-
|------------------------------------------|  T
|------------------------------------------|  I
|------------------------------------------|  M
|-0---0---0---3----5----0---0----_---0-----|  E
|-0---0---0---3----5----0---0---3-5--0-----|  S


GTR I
 ________________________________________________________________________________________
|1,2,3 times                                |4th time                                    |
|-------------------------------------------|--------------------------------------------|
|-------------------------------------------|--------------------------------------------|
|-------------------------------------------|--------------------------------------------|
|-5---/7------------5--7----1012-10---10-10-|-5---/7-------------------------------------|
|-3---/5------------3--5----8-10-8----8--8--|-3---/5-------------------------------------|
|---------0--0-0-0--------------------------|---------0--0-0-0--0--0--0-0-0--0--0--0-0-0-|
|                                           |                                            |
|GTR II                                     |                                            |
|-------------------------------------------|--------------------------------------------|
|-------------------------------------------|--------------------------------------------|
|-------------------------------------------|--------------------------------------------|
|-------------------------------------------|--------------------------------------------|
|-------------------------------------------|-------------------0-----0------0-----0-----|
|-------------------------------------------|-------------------0-----0------0-----0-----|


THEN PLAY:
           MAINRIFF

           VERSE      x 2

THEN:

("Ooh then she holds my hand...")
|---------------------------------------------|-------------------------------------------|
|---------------------------------------------|-------------------------------------------|
|---------------------------------------------|-------------------------------------------|
|-0-------------------------------------------|-5--------------------2--------------------|
|-0-------------------------------------------|-3--------------------0--------------------|
|-0-------------------------------------------|-------------------------------------------|
(GTR II plays 3 octave higher with effect)


|----------------------------------------------| -2-
|----------------------------------------------|  T
|----------------------------------------------|  I
|----------------------------------------------|  M
|-0----0--0----0--0----0--3--3--3--3--2--2--1--|  E
|-0----0--0----0--0----0--3--3--3--3--2--2--1--|  S


("And she squeezes tighter...")
|---------------------------------------------|-------------------------------------------|
|---------------------------------------------|-------------------------------------------|
|---------------------------------------------|-------------------------------------------|
|-0-------------------------------------------|-5--------------------2--------------------|
|-0-------------------------------------------|-3--------------------0--------------------|
|-0-------------------------------------------|-------------------------------------------|


("Using what i want to get what you want...")
|----------------------------------------------| -4-
|----------------------------------------------|  T
|----------------------------------------------|  I
|----------------------------------------------|  M
|-0----0--0----0--0----0--3--3--3--3--2--2--1--|  E
|-0----0--0----0--0----0--3--3--3--3--2--2--1--|  S


CHORUS
("Ooh sweet amber...")
|--------------------------------------------------------|
|--------------------------------------------------------|
|--------------------------------------------------------|
|--------------------------------------------------------|
|-0----------------3------2----------------8------7------|
|-0----------------3------2----------------8------7------|

                             (How sweet are you?...")
|------------------------------------------| -4-
|------------------------------------------|  T
|------------------------------------------|  I
|------------------------------------------|  M
|-0---0---0---3----5----0---0----_---0-----|  E
|-0---0---0---3----5----0---0---3-5--0-----|  S


|----------------------------------------------------------------------------| -4-
|----------------------------------------------------------------------------|  T
|-7--------7--------7--------10-7--9--------9--------------------------------|  I
|----------------------------------------------------14--------------15--14--|  M
|-5-555555-5-555555-5-555555-8--5--7-777777-7-777777-12-121212121212-13--12--|  E
|----------------------------------------------------------------------------|  S


("She holds the pen that spells the end...")
|----------------------------------------------------------------------------| -4-
|----------------------------------------------------------------------------|  T
|-7--------7--------7--------10-7--9--------9--------------------------------|  I
|----------------------------------------------------14--------------15--14--|  M
|-5-555555-5-555555-5-555555-8--5--7-777777-7-777777-12-121212121212-13--12--|  E
|----------------------------------------------------------------------------|  S


CHORUS
("Ooh sweet amber...")
|--------------------------------------------------------|
|--------------------------------------------------------|
|-7------------------------------------------------------|
|--------------------------------------------------------|
|-0----------------3------2----------------8------7------|
|-0----------------3------2----------------8------7------|


|----------------------------------------------------------------------------|
|----------------------------------------------------------------------------|
|----------------------------------------------------------------------------|
|-----------------------------------------------------------__----------__---|
|-0--------0--------0--------3--0--2--------2--------7--7--8__7--7--7--8__7--|
|-0-000000-0-000000-0-000000-3--0--2-222222-2-222222-7--7--8--7--7--7--8--7--|


|-----------------------------------------------------------------------------|3
|-----------------------------------------------------------------------------|T
|-----------------------------------------------------------------------------|I
|------------------------_-------_-------------------------_-------_-------_--|M
|-0--------0--------0-0-1_0-0-0-1_0-2--------2--------0-0-1_0-0-0-1_0-0-0-1_0-|E
|-0-000000-0-000000-0-0-1-0-0-0-1-0-2-222222-2-222222-0-0-1-0-0-0-1-0-0-0-1-0-|S



("Ooh sweet amber...")
(two guitars)
|--------------------------------------------------------|
|--------------------------------------------------------|
|--------------------------------------------------------|
|-7----------------10-----9----------------15-----14-----|
|-5----------------8------7----------------13-----12-----|
|-0----------------3------2----------------8------7------|


                             (How sweet are you?...")
|------------------------------------------| -4-
|------------------------------------------|  T
|------------------------------------------|  I
|------------------------------------------|  M
|-0---0---0---3----5----0---0----_---0-----|  E
|-0---0---0---3----5----0---0---3-5--0-----|  S


 _________________________________________________________________________________
|1,2,3 times                                |4th time                             |
|-------------------------------------------|-------------------------------------|
|-------------------------------------------|-------------------------------------|
|-------------------------------------------|-------------------------------------| THE
|-5---/7------------5--7----1012-10---10-10-|-------------------0-----------------| END
|-3---/5------------3--5----8-10-8----8--8--|-6--5--3--6--5--3--0-----------------|
|---------0--0-0-0--------------------------|-6--5--3--6--5--3--0-----------------|

           tabbed by:
   T E R O   S A I K K O N E N
         contact me to:
t s s l a y e r @ l u u k k u . c o m
comments
We did not receive enough feedback on this tab! Please rate:
print report bad tab
1 2 3 4 5
1 comment total.
0 reply
TheOneManBand12 wrote on October 5 2008, 08:09 pm

the intro isnt acoustic its just clean electric

I want to post or [tab]
guest
You may want to rate the tab now too:
select rating
Please do not post tabs as comments. Select "correction" instead!