Oops, an error
Loading. Please wait.

That Was Just Your Life Bass Tab

version 1
version 1
21,723 views 9 this week
7 commentsread comments
1 2 3 4 5
x 7
add to favorites
launch autoscroll
font size
0
reset
guitar tuner
Autoscroll
slow
fast
+/-
esc
set tempo
stop
Help us to improve Ultimate-Guitar.com Take our survey!
×
Author
Difficulty
intermediate
That Was Just Your Life
Metallica
Death Magnetic
Bass Tab
Tuning: Standard (E, A, D, G)

0:22                               (x4) 0:44                           (
|-------------------------------------|---------------------------------|
|-*--------------5--5\--------------*-|-*-------------------------------|
|-*-----------7---------------------*-|-*-------------------------------|
|---0-(0)--------------0-(0)---0-(0)--|--0----0-0--0-0----0---0---1-(1)-|

x4) 1:07                                  1:17   (x4) 1:27
--|--------------------------------------|-----------|------------------|
*-|-*----------------------------------*-|-*-------*-|------------------|
*-|-*----------------------------------*-|-*-------*-|------------------|
--|--0-(0)---------3--3--3--3-3--3-3--2--|--0--3--5--|--0-----------0-0-|

                               1:38
------------------------------|------------------------------------------|
------------------------------|-*----------------------------------------|
------------------------------|-*----------7-----------------7-----------|
0----0-0-0----0-0-0----0---0--|--0-0-0-5-6---6-5-6-0-0-0-5-6---6-5-6-0-0-|

                                 1:48
--------------------------------|---------------------------------------|
------------------------------*-|-*-------------------------------------|
-------7----------------------*-|-*----7--7-(7)-------7--7-(7)-------7--|
-0-5-6---6-5-6-5-3-5-6-5-4-3-2--|--5-6------------5-6------------5-6----|

---------------|
-------------*-|
7-(7)--------*-|
--------5---3--|

1:58
|-----------------------------------------------------------------------|
|-*---------------------------------------------------------------------|
|-*----------7-----------------7-----------------7----------------------|
|--0-0-0-5-6---6-5-6-0-0-0-5-6---6-5-6-0-0-0-5-6---6-5-6--5-3-5-6-5-4-3-|

------------------------------------------------------------------------|
------------------------------------------------------------------------|
-------------7-----------------7-----------------7----------------------|
2--0-0-0-5-6---6-5-6-0-0-0-5-6---6-5-6-0-0-0-5-6---6-5-6--3-0-0-0-2-0-0-|

---|
-*-|
-*-|
0--|

2:18
|------------------------------------------------------|
|------------------------------------------------------|
|------7--7-(7)-------7--7-(7)-------7--7-(7)----------|
|--5-6------------5-6------------5-6------------5---3--|

2:23                                                              (x3)
|--------------------------------------------------------------------|
|-*----------------------------------------------------------------*-|
|-*----------------------------------------------------------------*-|
|--0--0-0-0-0-0-0-0--0--0-0-0-0-0-0-0--0-0-0-0-0-0--5-3-5-6-5-4-3-2--|

2:39
|---------------------------------------------------|
|---------------------------------------------------|
|---------------------------------------------------|
|--0--0--3----0--0--3----0--0--3---5-0-0-0-3-0-0-0--|

2:44
|-----------------------------------------------------------------------|
|-*---------------------------------------------------------------------|
|-*---------------------------------------------------------------------|
|--5-5-5-5-5-5-5-5-3-3-3-3-3-3-5-4-3-5-4-3--5-5-5-5-5-5-5-5-3-3-3-3---3-|

       (1,2,3)   (4)
|------------|-----|
-------------|-----|
-------------|---*-|
-------------|---*-|
-3--3--3--3--|--3--|

3:05
|-----------------------------------------------------------------------|
|-*---------------------------------------------------------------------|
|-*----------7-----------------7-----------------7----------------------|
|--0-0-0-5-6---6-5-6-0-0-0-5-6---6-5-6-0-0-0-5-6---6-5-6--5-3-5-6-5-4-3-|

---|
-*-|
-*-|
2--|

3:15
|------------------------------------------------------|
|------------------------------------------------------|
|------7--7-(7)-------7--7-(7)-------7--7-(7)----------|
|--5-6------------5-6------------5-6------------5---3--|

3:20
|-----------------------------------------------------------------------|
|-*---------------------------------------------------------------------|
|-*----------7-----------------7-----------------7----------------------|
|--0-0-0-5-6---6-5-6-0-0-0-5-6---6-5-6-0-0-0-5-6---6-5-6--5-3-5-6-5-4-3-|

------------------------------------------------------------------------|
------------------------------------------------------------------------|
-------------7-----------------7-----------------7----------------------|
2--0-0-0-5-6---6-5-6-0-0-0-5-6---6-5-6-0-0-0-5-6---6-5-6--3-0-0-0-2-0-0-|

---|
-*-|
-*-|
0--|

3:40
|------------------------------------------------------|
|------------------------------------------------------|
|------7--7-(7)-------7--7-(7)-------7--7-(7)----------|
|--5-6------------5-6------------5-6------------5---3--|

3:45
|--------------------------------------------------------------------|
|-*----------------------------------------------------------------*-|
|-*----------------------------------------------------------------*-|
|--0--0-0-0-0-0-0-0--0--0-0-0-0-0-0-0--0-0-0-0-0-0--5-3-5-6-5-4-3-2--|

4:01
|---------------------------------------------------|
|---------------------------------------------------|
|---------------------------------------------------|
|--0--0--3----0--0--3----0--0--3---5-0-0-0-3-0-0-0--|

4:07
|-----------------------------------------------------------------------|
|-*---------------------------------------------------------------------|
|-*---------------------------------------------------------------------|
|--5-5-5-5-5-5-5-5-3-3-3-3-3-3-5-4-3-5-4-3--5-5-5-5-5-5-5-5-3-3-3-3---3-|

       (1,2,3)   (4)
|------------|-----|
-------------|-----|
-------------|---*-|
-------------|---*-|
-3--3--3--3--|--3--|

4:27                 (x8) 4:47               (x3) 4:51
|-----------------------|-----------------------|-----------------------|
|-*-------------------*-|-*-------------------*-|-----------------------|
|-*-------------------*-|-*-------------------*-|-----------------------|
|--0-0-0----------1--0--|--0-0-0---0-0-0-0-0-0--|--0-0-0--0-0-0--0-0-0--|

-------|
-------|
-------|
0-0-0--|

4:52                                   (x4)
|-----------------------------------------|
|-*-------------------------------------*-|
|-*-7-(7)-------------------------------*-|
|----------6--5-(5)----4--3-(3)----2-(2)--|  (Last note doesn't sustain)

5:13
|-----------------------------------------------------------------------|
|-*---------------------------------------------------------------------|
|-*----------7-----------------7-----------------7----------------------|
|--0-0-0-5-6---6-5-6-0-0-0-5-6---6-5-6-0-0-0-5-6---6-5-6--5-3-5-6-5-4-3-|

------------------------------------------------------------------------|
------------------------------------------------------------------------|
-------------7-----------------7-----------------7----------------------|
2--0-0-0-5-6---6-5-6-0-0-0-5-6---6-5-6-0-0-0-5-6---6-5-6--3-0-0-0-2-0-0-|

---|
-*-|
-*-|
0--|

5:33                 (x4) 5:42              (x3) 5:47
|-----------------------|-----------------------|-----------------------|
|-*-------------------*-|-*-------------------*-|-----------------------|
|-*-------------------*-|-*-------------------*-|-----------------------|
|--0-0-0----------1--0--|--0-0-0---0-0-0-0-0-0--|--0-0-0--0-0-0--0-0-0--|

        5:48                                     5:53
-------|----------------------------------------|-----------------------|
-------|----------------------------------------|-*---------------------|
-------|------7-(7)-----7-(7)-----7-(7)---------|-*----7-(7)------5-(5)-|
0-0-0--|--5-6-------5-6-------5-6---------------|--5-6--------5-6-------|

                                                          6:13
---------------------------------------------------------|-------|
-------------------------------------------------------*-|-------|
---3-(3)------2-(2)------3-(3)---2-(2)---3-(3)---5-(5)-*-|-------|
----------2-3--------------------------------------------|--17\--|

6:14                 (x4) 6:23               (x3) 6:27
|-----------------------|-----------------------|-----------------------|
|-*-------------------*-|-*-------------------*-|-----------------------|
|-*-------------------*-|-*-------------------*-|-----------------------|
|--0-0-0----------1--0--|--0-0-0---0-0-0-0-0-0--|--0-0-0--0-0-0--0-0-0--|

-------|
-------|
-------|
0-0-0--|

6:29
|-----------------------------------------------------------------------|
|-*---------------------------------------------------------------------|
|-*----------7-----------------7-----------------7----------------------|
|--0-0-0-5-6---6-5-6-0-0-0-5-6---6-5-6-0-0-0-5-6---6-5-6--5-3-5-6-5-4-3-|

    6:38
---|---------------------------------------------------------------------|
-*-|-*-------------------------------------------------------------------|
-*-|-*-------------------------------------------------------------------|
2--|--5-5-5-5-5-5-5-5-3-3-3-3-3-3-5-4-3-5-4-3--5-5-5-5-5-5-5-5-3-3-3-3-3-|

     (x3) 6:54
--------|---------------------------------------------------------------|
------*-|---------------------------------------------------------------|
------*-|---------------------------------------------------------------|
-3-3-3--|--5-5-5-5-5-5-5-5-3-3-3-3-3-3-5-4-3-5-4-3--5-5-5-5-5-5-5-5-3-3-|

---------|
---------|
---------|
3-3---3--|

6:59
|-----------------------------------------------------------------------|
|-----------------------------------------------------------------------|
|------------7-----------------7-----------------7----------------------|
|--0-0-0-5-6---6-5-6-0-0-0-5-6---6-5-6-0-0-0-5-6---6-5-6--5-3-5-6-5-4-3-|

   7:04
---|-----|
---|-----|
---|-----|
2--|--0--|
Suggest correction
comments
print report bad tab
7 comments total. Showing first comments.
0 reply
SoftParade1967 502 Sep 21, 2008 05:06 PM

flawless

0 reply
opiate- 10 Nov 03, 2008 11:54 AM

Man this is hard :D

0 reply
ty0515 52 Mar 26, 2009 09:49 AM

ahh nice one man. this is not easy

guest
You may want to rate the tab now too:
select rating
Wanna post a correction for this tab? Suggest correction