Oops, an error
Loading. Please wait.

That Was Just Your Life Tab

version 1
version 1
46,193 views 3 this week
3 commentsread comments
1 2 3 4 5
worth learning
x 7
add to favorites
launch autoscroll
font size
0
reset
how to read this tab
guitar tuner
Autoscroll
slow
fast
+/-
esc
set tempo
stop
Help us to improve Ultimate-Guitar.com Take our survey!
×
Author
Difficulty
intermediate
Artist: Metallica
Album: Death Magnetic
Song: That Was Just Your Life

Info:
There is no timing in this sheet, use the song to get the rhythm.

[1] Intro - Clean (8x)

e||------------------------------------------------------------|
B||------------------------------------------------------------|
G||--------0--------------------------------0------------------|
D||------2----2----------3----------------2----2----------3----|
A||---1---------------1----------------1---------------1-------|
E||0---------------0----------------0---------------0----------|
                           
[2] Intro | Background - Clean w/ Flanger/Harmonizer (3x)
Note: Do this from the 3th time of part [1] till the 6th time of part [1]
                           
e||-----------------------------------------------------------------------|
B||-----------------------------------------------------------------------|
G||------------------------12-11-10-9--/15----------------12-11-10-9--/15-|
D||-----------------------------------------------------------------------|
A||-----------------------------------------------------------------------|
E||-----------------------------------------------------------------------|

[3] Intro - Distortion (4x)
Note: Play this from the 7th time of part [1]

        *** *
e||--------------------------------|
B||--------------------------------|
G||--------------------------------|
D||2---222-2--2----2--2--3---------|
A||2---222-2--0----0--0--3---------|
E||0---000-0--0----0--0--1---------|

[4] Intro | Background - Distortion (3x)
Note: Play this under part [3] same as part [2] only with distortion
                           
e||-----------------------------------------------------------------------|
B||-----------------------------------------------------------------------|
G||------------------------12-11-10-9~-/15----------------12-11-10-9~-/15-|
D||-----------------------------------------------------------------------|
A||-----------------------------------------------------------------------|
E||-----------------------------------------------------------------------|

OR

e||-----------------------------------------------------------------------|
B||-------------------------------------11-----------------------------11-|
G||------------------------12-11-10-9~--------------------12-11-10-9~-----|
D||-----------------------------------------------------------------------|
A||-----------------------------------------------------------------------|
E||-----------------------------------------------------------------------|

[5] Intro - Distortion (2x)
e||----------------------------|
B||----------------------------|
G||------------333-------------|
D||------2-----333--3-3-3-4-2--|
A||--/1-----1--111--3-3-3-4-2--|
E||0----------------1-1-1-2-0--|

[6] End Into - Distortion
e||--------------------------|
B||--------------------------|
G||--------------------------|
D||------2~---------2--3--3--|
A||---1----------1-----3--3--|
E||0----------0--------1--1--|

[7] Pre-Vese - Distortion (4x)
   ***             ***             ***
e||----------------------------------------------------------------|
B||----------------------------------------------------------------|
G||----------------------------------------------------------------|
D||--------2-0---0---------2-0---0---------2-0---0-----------------|
A||----0-1-----1-------0-1-----1-------0-1-----1---1---0-1-0-------|
E||000-------------000-------------000---------------3-------3-2-1-|

[8] Pre-Verse 2 - Distortion (2x)
e||---------------------------------------|
B||---------------------------------------|
G||---------------------------------3-----|
D||------2~---------2~---------2~---3--3--|
A||---1----------1----------1-------1--3--|
E||0----------0----------0-------------1--|

[9] Verse - Distortion (2x)
e||----------------------------------------------------------------|
B||----------------------------------------------------------------|
G||----------------------------------------------------------------|
D||--------2-0---0---------2-0---0---------2-0---0-----------------|
A||----0-1-----1-------0-1-----1-------0-1-----1---1---0-1-0-------|
E||000-------------000-------------000---------------3-------3-2-1-|
                                                    * *   * * 
e||----------------------------------------------------------------|
B||----------------------------------------------------------------|
G||-------------------------------------------------#-#-5-#-#------|
D||--------2-0---0---------2-0---0---------2-0---0--#-#-5-#-#--3---|
A||----0-1-----1-------0-1-----1-------0-1-----1----#-#-3-#-#--3---|
E||000-------------000-------------000--------------#-#---#-#--1---|

[10] Fill - Distortion (1x)
e||---------------------------------------|
B||---------------------------------------|
G||---------------------------------3-----|
D||------2~---------2~---------2~---3--3--|
A||---1----------1----------1-------1--3--|
E||0----------0----------0-------------1--|

[11] Pre-Chorus? (2x)
Note: Heavy palm mute
   * ** **** * ** **** * ** ****** **
e||----------------------------------------------------|
B||----------------------------------------------------|
G||----------------------------------------------------|
D||2-22-2222-2-22-2222-2-22-222222-22------------------|
A||2-22-2222-2-22-2222-2-22-222222-22-1-0---0-1-0------|
E||0-00-0000-0-00-0000-0-00-000000-00-----3-------3-2-1|

That it for now.. the main chorus is something like this:
e||------------------------------------------------------|
B||------------------------------------------------------|
G||999999999999999---------------------------------------|
D||999999999999999-8\7777777777777-33333333333-22--2--2--|
A||777777777777777-8\7777777777777-33333333333-22--2--2--|
E||----------------6\5555555555555-11111111111-00--0--0--|
Suggest correction
comments
print report bad tab
3 comments total.
0 reply
violent.j.11 102 wrote on September 6 2008, 04:15 am

Lots of errors. Main riff is way off. I'll have my tab ready tomorrow. Check it out and you'll know where you messed up.

0 reply
sigma3002 165 wrote on September 6 2008, 05:41 am

too many errors, check my tab

0 reply
pritam.kunda 10 wrote on November 2 2013, 02:02 am

just bogus

guest
You may want to rate the tab now too:
select rating
Please do not post tabs as comments. Select "correction" instead!