Oops, an error
Loading. Please wait.

That Was Just Your Life Tab

version 1
version 1
48,352 views 30 this week
2 commentsread comments
1 2 3 4 5
accurate
x 9
add to favorites
launch autoscroll
font size
0
reset
how to read this tab
guitar tuner
Autoscroll
slow
fast
+/-
esc
set tempo
stop
Help us to improve Ultimate-Guitar.com Take our survey!
×
Author
Difficulty
intermediate
                METALLICA - THAT WAS JUST YOU LIFE

Sorry you guys i didn't show the timing for this song but then again you should know the 
because you know the song...... and if you dont then why would you wanna learn it 
lol..... METALLICA FOR LIFE!!!!!!!!

     (Clean x8)
e|------------------|
B|------------------|
G|------------------|
D|-------5----------|
A|-----7---7-----8--|
E|-0-6-------0-6----|

    (Distorted x4)
e|-------------------|
B|-------------------|
G|-------------------|
D|-2---22-2-2-2-2-3--|
A|-2---22-2-2-2-2-3--|
E|-0---00-0-0-0-0-1--|
       .. . .

     (Distorted x2)
e|-----------------------|
B|-----------------------|
G|-----------333---------|
D|-----------333-333-42--|
A|------7----111-333-42--|
E|-0-/6---6------111-20--|

     (Distorted x2)
e|----------------------|
B|----------------------|
G|----------------------|
D|-----------------3-3--|
A|------7-------7--3-3--|
E|-0-/6----0-/6----1-1--|

                      (Distorted x4)
e|-------------------------------------------------------------|
B|-------------------------------------------------------------|
G|-------------------------------------------------------------|
D|---------2--------------2--------------2---------------------|
A|-----0h1---1p0h1----0h1---1p0h1----0h1---1p0h1p0-------------|
E|-000-------------000------------000-------------3p2h3p2p1p0--|

           (Distorted x2)
e|--------------------------------|
B|--------------------------------|
G|--------------------------3-----|
D|-------2-------2-------2--3--3--|
A|---0h1-----0h1-----0h1----1--3--|
E|-0-------0-------0-----------1--|

                     (Distorted x2)
e|------------------------------------------------------------|
B|------------------------------------------------------------|
G|------------------------------------------------------------|
D|---------2--------------2--------------2--------------------|
A|-----0h1---1p0h1----0h1---1p0h1----0h1---1p0h1p0------------|
E|-000-------------000------------000-------------3p2h3p2p1p0-|

If only i knew more but im pretty sure what i got is right.... if not then send me the 
and i'll gladly be sure to change it
Suggest correction
comments
print report bad tab
2 comments total.
0 reply
GrAfF_iT 86 wrote on September 12 2008, 02:33 pm

I think this way might be the right to play the main riff, at least I find it easier then jumping across three strings:


|-------------------|-------------------|
|-------------------|-------------------|
|-------------------|-------------------|
|-------------------|-------------------|
|----------7--------|-------------------|
|--000-5-6---6-5-6--|--5-3-5-6-5-3-1-0--|


besides that your tab is good I'd say

0 reply
Metalfreak08 10 wrote on September 22 2008, 06:07 am

this is chourus pretty simple really

---------------------------------|
---------------------------------|
---------------------------------|
999999-------------------22-2-2-2|
777777-8-777777-5-333333-22-2-2-2|
-------6-555555-3-111111-00-0-0-0|

---------------------------------|
---------------------------------|
---------------------------------|
999999-------------------55-5-5-5|
777777-8-777777-5-333333-33-3-3-3|
-------6-555555-3-111111-33-3-3-3|
---------------------------------|

---------------------------------|
---------------------------------|
999999-------------------77-7-7-7|
777777-8-777777-5-333333-55-5-5-5|
-------6-555555-3-111111-55-5-5-5|
---------------------------------|

---------------------------------|
---------------------------------|
999999-------------------22-2-2-2|
777777-8-777777-5-333333-22-2-2-2|
-------6-555555-3-111111-00-0-0-0|
then it goes
--------------------|
--------------------|
--------------------|
--------33-2--3-2---|
-------------1---1*~|
000-0-0-------------|

guest
You may want to rate the tab now too:
select rating
Please do not post tabs as comments. Select "correction" instead!