Oops, an error
Loading. Please wait.

That Was Just Your Life Tab

version 3
version 3
72,478 views 15 this week
16 commentsread comments
1 2 3 4 5
excellent!
x 23
add to favorites
launch autoscroll
font size
0
reset
how to read this tab
guitar tuner
Tab Pro tools
  • play this tab
  • loop segment
  • change instrument
  • show fretboard
  • metronome
×
Best way to learn
"That Was Just Your Life"
Autoscroll
slow
fast
+/-
esc
set tempo
stop
Contributor
Difficulty
intermediate
Artist: Metallica
Album: Death Magnetic
Song: THAT WAS JUST YOUR LIFE


TUNING: Standard

The timing of the riffs are relative to each other. I don't have quarter/
half/whole notes, but you can line each riff up to another and the notes should
 be in the right position relative to notes from another riff.


Intro.1
e|-----------------------------------------------------------------|
B|-----------------------------------------------------------------|
G|-----------------0-----------------------------------------------|
D|--------------2---------2----------------------------3-----------|
A|--------1------------------------------------1-------------------|
E|-0-----------------------------------0---------------------------|

Intro.2
e|-----------------------------------------------------------------|
B|-----------------------------------------------------------------|
G|-----------------------------------------------------------------|
D|-2-------2-2-2---2-------------------2-------2-------3-----------|
A|-2-------2-2-2---2-------------------2-------1-------3-----------|
E|-0-------0-0-0---0-------------------0-------0-------1-----------|
           * * *   *

Intro.Fill
e|------------------------------------|       
B|------------------------------------|
G|--12--11--10--9-/--15~~-------------|
D|------------------------------------|
A|------------------------------------|
E|------------------------------------|

Intro.3
e|-----------------------------------------------------------------|
B|-----------------------------------------------------------------|
G|-------------------------------------3--3--3--3------------------|
D|-2---------------2-------------------3--3--3--3---3---3---3----5-|
A|-2-------1----------------1----------1--1--1--1---3---3---3----5-|
E|-0------------------------------------------------1---1---1----3-|

Intro.4
e|-----------------------------------------------------------------|
B|-----------------------------------------------------------------|
G|-------------------------------------------------3---------------|
D|-2------------2~------------2------------2-------3-------3-------|
A|-2------1-------------------2------1-------------1-------3-------|
E|-0--------------------------0----------------------------1-------|





---------------------------------------------------------------------------------


Verse.1
e|-----------------------------------------------------------------|
B|-----------------------------------------------------------------|
G|-----------------------------------------------------------------|
D|---------2---------------2---------------2-----------------------|
A|-----0-1---1-0-1-----0-1---1-0-1-----0-1---1-0-1-0---0-1-0-------|
E|-000-------------000-------------000---------------3-------3-2-1-|
   ***             ***             ***

Verse.2
e|-----------------------------------------------------------------|
B|-----------------------------------------------------------------|
G|-------------------------------------------------3---------------|
D|----------2~--------------2~--------------2~-----3-------3-------|
A|----0--1------------0--1------------0--1---------1-------3-------|
E|-0---------------0---------------0-----------------------1-------|


Verse.3
e|-----------------------------------------------------------------|
B|-----------------------------------------------------------------|
G|-------------------------------------------------5---------------|
D|---------2---------------2---------------2-------5-X-X-X-3-X-X-X-|
A|-----0-1---1-0-1-----0-1---1-0-1-----0-1---1-0---3-X-X-X-3-X-X-X-|
E|-000-------------000-------------000---------------X-X-X-1-X-X-X-|
   ***             ***             ***               * * *   * * *



---------------------------------------------------------------------------------


Prechorus.1
e|-----------------------------------------------------------------|
B|-----------------------------------------------------------------|
G|-----------------------------------------------------------------|
D|-2-2--2--2----2-2-2----2--2----2-2-2----2--2---2-----------------|
A|-2-2--2--2----2-2-2----2--2----2-2-2----2--2---2-0---0-1-0-------|
E|-0-0--0--0----0-0-0----0--0----0-0-0----0--0---0---3-------3-2-1-|
   * *  *  *    * * *    *  *    * * *    *  *   *
Prechorus.2
e|-----------------------------------------------------------------|
B|-----------------------------------------------------------------|
G|-------------------------------------------------5-5-------------|
D|-2---2---3---3---X-X-2---3---3--( )--2---3---3---5-5-X-X-3-3-X-X-|
A|-2---2---3---3---X-X-2---3---3--( )--2---3---3---3-3-X-X-3-3-X-X-|
E|-0---0---1---1---X-X-0---1---1--( )--0---1---1-------X-X-1-1-X-X-|
                                 REST                  * *     * *

CHORUS
e|-----------------------------------------------------------------|
B|-----------------------------------------------------------------|
G|-9-9-9-9-9-9-------------------------------------9-9---9---9----9|
D|-9-9-9-9-9-9-8-8-7-7-7-7-7-7-5-5-3-3-3-3-3-3-3-3-9-9---9---9----9|
A|-7-7-7-7-7-7-8-8-7-7-7-7-7-7-5-5-3-3-3-3-3-3-3-3-7-7---7---7----7|
E|-------------6-6-5-5-5-5-5-5-3-3-1-1-1-1-1-1-1-1-----------------|

e|-----------------------------------------------------------------|
B|-----------------------------------------------------------------|
G|-9-9-9-9-9-9-------------------------------------5-5---5---5----5|
D|-9-9-9-9-9-9-8-8-7-7-7-7-7-7-5-5-3-3-3-3-3-3-3-3-5-5---5---5----5|
A|-7-7-7-7-7-7-8-8-7-7-7-7-7-7-5-5-3-3-3-3-3-3-3-3-3-3---3---3----3|
E|-------------6-6-5-5-5-5-5-5-3-3-1-1-1-1-1-1-1-1-----------------|

e|-----------------------------------------------------------------|
B|-----------------------------------------------------------------|
G|-9-9-9-9-9-9-------------------------------------7-7---7---7----7|
D|-9-9-9-9-9-9-8-8-7-7-7-7-7-7-5-5-3-3-3-3-3-3-3-3-7-7---7---7----7|
A|-7-7-7-7-7-7-8-8-7-7-7-7-7-7-5-5-3-3-3-3-3-3-3-3-5-5---5---5----5|
E|-------------6-6-5-5-5-5-5-5-3-3-1-1-1-1-1-1-1-1-----------------|

e|-----------------------------------------------------------------|
B|-----------------------------------------------------------------|
G|-9-9-9-9-9-9-------------------------------------9-9---9---9---9-|
D|-9-9-9-9-9-9-8-8-7-7-7-7-7-7-5-5-3-3-3-3-3-3-3-3-9-9---9---9---9-|
A|-7-7-7-7-7-7-8-8-7-7-7-7-7-7-5-5-3-3-3-3-3-3-3-3-7-7---7---7---7-|
E|-------------6-6-5-5-5-5-5-5-3-3-1-1-1-1-1-1-1-1-----------------|



---------------------------------------------------------------------------------


Bridge.1
e|-----------------------------------------------------------------|
B|-----------------------------------------------------------------|
G|-----------------------------------------------------------------|
D|-----------------------------------------------------------------|
A|---------8-8--7---8-7-------------------8-8--7---8-7-------------|
E|-000-0-0--------6------6~-------000-0-0--------6------7~---------|
   *** * *                        *** * *


Bridge.2
e|-----------------------------------------------------------------|
B|-----------------------------------------------------------------|
G|-----------------------------------------------------------------|
D|---------7-7--6---7-6-------------------7-7--6---7-6-------------|
A|----------------5------5~----------------------5------7~---------|
E|-000-0-0------------------------000-0-0--------------------------|
   *** * *                        *** * *

Bridge.3
e|-----------------------------------------------------------------|
B|---------1010-9---109------------------1010-9---109--------------|
G|----------------7------9~---------------------7-------9~---------|
D|-----------------------------------------------------------------|
A|-----------------------------------------------------------------|
E|-----------------------------------------------------------------|


Bridge.4
e|-----------------------------------------------------------------|
B|-----------------------------------------------------------------|
G|-----------------------------------------------------------------|
D|-----------------------------------------------------------------|
A|-222-2-2-2-2-2-2-222-2-2-2-2-2-2-222-2-2-2-2-2-222-222-222-222---|
E|-000-0-0-0-0-0-0-000-0-0-0-0-0-0-000-0-0-0-0-0-000-000-000-000---|
   *** * * * * * * *** * * * * * * *** * * * * * *** *** *** ***


---------------------------------------------------------------------------------

Ending.1
e|-----------------------------------------------------------------|
B|-----------------------------------------------------------------|
G|-----------------------------------------------------------------|
D|----------2~--------------2~--------------2~---------------------|
A|----0--1------------0--1------------0--1-------------------------|
E|-0---------------0---------------0-------------------------------|

Ending.2
e|-----------------------------------------------------------------|
B|-----------------------------------------------------------------|
G|----------------------------------4----------------7-------------|
D|-2---------------5----------------4----------------7-------------|
A|-2---------------5----------------2----------------5-------------|
E|-0---------------3-----------------------------------------------|

e|-----------------------------------------------------------------|
B|-----------------------------------------------------------------|
G|-----------------5----------------2----------------7-------------|
D|-5---------------5----------------2----------------7-------------|
A|-5---------------2----------------0----------------5-------------|
E|-3---------------------------------------------------------------|

e|-----------------------------------------------------------------|
B|-----------------------------------------------------------------|
G|---------------------------------4----------------7--------------|
D|-2--------------5----------------44444444444444444777777777777777|
A|-2222222222222225555555555555555522222222222222222555555555555555|
E|-00000000000000033333333333333333--------------------------------|
    ************** **************** **************** **************

e|-----------------------------------------------------------------|
B|-----------------------------------------------------------------|
G|----------------4----------------2----------------7--------------|
D|-5--------------4444444444444444422222222222222222777777777777777|
A|-5555555555555552222222222222222200000000000000000555555555555555|
E|-333333333333333-------------------------------------------------|
    ************** **************** **************** **************
_______________________________________________________________________________________


SONG ORDER:
-----------------------{INTRO}-------------------------
-Intro.1  X6
-Simultaneously: [Intro.1 AND Into.2] X4  (If desired, throw in Intro.Fill where needed)
-Intro.3  X2
-Intro.4  X2
--------------------{First Verse}----------------------
-Verse.1  X4
-Verse.2  X2
-Verse.1  X1
-Verse.3  X1
-Verse.1  X1
-Verse.3  X1
-Verse.2  X1
-----------------------{Chorus}------------------------
-Prechorus.1  X3
-Prechorus.2  X1
-CHORUS       X1
--------------------{Second Verse}---------------------
-Verse.1  X2
-Verse.2  X1
-Verse.1  X1
-Verse.3  X1
-Verse.1  X1
-Verse.3  X1
-Verse.2  X1
-----------------------{Chorus}------------------------
-Prechorus.1  X3
-Prechorus.2  X1
-CHORUS       X1
-----------------------{Bridge}------------------------
-Bridge.1  X1
-Simultaneously [Bridge.1  AND  Bridge.2] X2
-Simultaneously [Bridge.1  AND  Bridge.2  AND  Bridge.3] X1
-Bridge.4
------------------------{Solo}-------------------------
-CHORUS (It's SLIGHTLY different.)
--------------------{Third Verse}----------------------
-Verse.1  X1
-Verse.3  X1
-Verse.1  X1
-Verse.3  X1
-----------------------{Ending}------------------------
-Simultaneously [Bridge.1  AND  Bridge.2] X1
-Simultaneously [Bridge.1  AND  Bridge.2  AND  Bridge.3] X1
-Bridge.4  X1
-Ending.1  X1
-Ending.2  X1
-Simultaneously [Bridge.1  AND  Bridge.2] X1
-Simultaneously [Bridge.1  AND  Bridge.2  AND  Bridge.3] X1
-Bridge.4  X1
-Verse.1   X2
-CHORUS    X1
-Verse.1   X1
comments
print report bad tab
16 comments total. Showing first comments.
0 reply
violent.j.11 wrote on September 11 2008, 03:01 pm

OH EFF ME. I messed up on one friggin note on Bridge.3.


e|-----------------------------------------------------------------|
B|---------1010-9---109------------------1010-9---109--------------|
G|----------------7------7~---------------------7-------9~---------|
D|-----------------------------------------------------------------|
A|-----------------------------------------------------------------|
E|-----------------------------------------------------------------|

0 reply
Gresp wrote on September 13 2008, 12:46 pm

Great tab man, just there is no solo and there is few little mistakes.

0 reply
Onaga wrote on September 14 2008, 08:59 am

Awesome tab, sounds really spot on! Just need the solo now =D

I want to post or [tab]
guest
You may want to rate the tab now too:
select rating
Please do not post tabs as comments. Select "correction" instead!