Oops, an error
Loading. Please wait.

The Call Of Ktulu Tab

version 1
418,629 views 1,125 this week
106 commentsread comments
1 2 3 4 5
excellent!
x 215
add to favorites
launch autoscroll
font size
0
reset
how to read this tab
guitar tuner
Tab Pro tools
  • play this tab
  • loop segment
  • change instrument
  • show fretboard
  • metronome
×
Best way to learn
"The Call Of Ktulu"
Autoscroll
slow
fast
+/-
esc
set tempo
stop
Contributor
#----------------------------------PLEASE NOTE---------------------------------#
#This file is the author's own work and represents their interpretation of the #
#song. You may only use this file for private study, scholarship, or research. #
#------------------------------------------------------------------------------##


Gtr I (E A D G B E) - 'Hetfield Intro/Outro' - Clean
Gtr II (E A D G B E) - 'Hetfield' - w/ Fuzz
Gtr III (E A D G B E) - 'Hammet' - w/ Fuzz
Gtr IV (E A D G B E) - 'Solo' - Way Distorted

   Q=132
  4/4
   Gtr I
   E E E E E E E E   E E E E E E E E   E E E E E E E E   E E E E E E E E
e|---5---------5---|---5---------5---|---6---------6---|---6---------6----|
B|-------6-------6-|-------6-------6-|-------6-------6-|-------6-------6--|
G|-----7-----7-----|-----7-----7-----|-----7-----7-----|-----7-----7------|
D|-0-------7-------|-0-------7-------|-0-------8-------|-0-------8--------|
A|-----------------|-----------------|-----------------|------------------|
E|-----------------|-----------------|-----------------|------------------|


   E E E E  E E E E   E E E E  E E E E     E E E E E E E E  3x E E E E E E E E
e|---8----------8---|---8----------8---|----5---------5----|---5---------5---|
B|-------8--------8-|-------8--------8-|o-------6-------6-o|-------6-------6-|
G|-----9------9-----|-----9------9-----|------7-----7------|-----7-----7-----|
D|-0-------10-------|-0-------10-------|--0-------7--------|-0-------7-------|
A|------------------|------------------|o-----------------o|-----------------|
E|------------------|------------------|-------------------|-----------------|


   E E E E E E E E   E E E E E E E E   E E E E  E E E E   E E E E  E E E E
e|---6---------6---|---6---------6---|---8----------8---|---8----------8---|
B|-------6-------6-|-------6-------6-|-------8--------8-|-------8--------8-|
G|-----7-----7-----|-----7-----7-----|-----9------9-----|-----9------9-----|
D|-0-------8-------|-0-------8-------|-0-------10-------|-0-------10-------|
A|-----------------|-----------------|------------------|------------------|
E|-----------------|-----------------|------------------|------------------|


   E E E E E E E E   H..       +E      E E E E E E E E   E E E E E E E E  4x
e|---5---------5---|-5---------(5)-|----------0-------|---------0--------|
B|-------6-------6-|-6---------(6)-|o-------0---0-----|-------0---0-----o|
G|-----7-----7-----|-7---------(7)-|------5-------5---|-----5-------5----|
D|-0-------7-------|---------------|----7-------------|---7-----------7--|
A|-----------------|---------------|o-0-------------7-|-6---------------o|
E|-----------------|---------------|------------------|------------------|


     E E E E E E E E   E E E E E E E E  4x
e|--------1-------1-|-------1-------5--|
B|o-----3-------3---|-----3-------3---o|
G|----2-------3-----|---4-------5------|
D|--0-------0-------|-0-------0--------|
A|o-----------------|-----------------o|
E|------------------|------------------|


       E E E E E E E E   E E E E E E E E  4x
e|----------0-------|---------0--------|
B|o-------0---0-----|-------0---0-----o|
G|------5-------5---|-----5-------5----|
D|----7-------------|---7-----------7--|
A|o-0-------------7-|-6---------------o|
E|------------------|------------------|


     E E E E E E E E   E E E E E E E E  3x E E E E E E E E   E E E E E E E E
e|--------1-------1-|-------1-------5--|-------1-------1-|-------2-------5--|
B|o-----3-------3---|-----3-------3---o|-----3-------3---|-----3-------3----|
G|----2-------3-----|---4-------5------|---2-------3-----|---4-------5------|
D|--0-------0-------|-0-------0--------|-0-------0-------|-0-------0--------|
A|o-----------------|-----------------o|-----------------|------------------|
E|------------------|------------------|-----------------|------------------|
|
|                                         Gtr III
|                                         PM------------------------------|
|           W                 W        3x E E E E E E E E   E E E E E E E E
|------------------|------------------|-----------------|------------------|
|o-----------------|-----------------o|-----------------|------------------|
|------------------|------------------|-----------------|------------------|
|------------------|------------------|-----------------|------------------|
|o-----------------|-----------------o|-----------------|------------------|
|------------------|------------------|-5-5-5-5-5-5-5-5-|-5-5-5-5-5-5-5-5--|


     Gtr II
     E E E E E E E E   E E E E E E E E  4x
e|----------0-------|---------0--------|
B|o-------0---0-----|-------0---0-----o|
G|------5-------5---|-----5-------5----|
D|----7-------------|---7-----------7--|
A|o-0-------------7-|-6---------------o|
E|------------------|------------------|
|
|     PM|               PM----|
|   E E E E E E E E   E E E E E E Q    4x
|------------------|------------------|
|o-----------------|-----------------o|
|----------------9-|-8---------8-9----|
|--7-------7---7-9-|-8---------8-9----|
|o-7-----7-7-7-7-7-|-6-6-6-6-6-6-7---o|
|--5-5-5-0-5-0-0---|------------------|


       E E E E E E E E   E E E E E E E E  4x
e|--------1-------1-|-------1-------5--|
B|o-----3-------3---|-----3-------3---o|
G|----2-------3-----|---4-------5------|
D|--0-------0-------|-0-------0--------|
A|o-----------------|-----------------o|
E|------------------|------------------|
|
 |     E E E E E E E E   E E E E E E E E  4x
e|------------------|------------------|
B|o-----------------|-----------------o|
G|--2-2-2-2-3-3-3-3-|-4-4-4-4-5-5-5-5--|
D|--0-0-0-0-0-0-0-0-|-0-0-0-0-0-0-0-0--|
A|o-----------------|-----------------o|
E|------------------|------------------|


     E E E E E E E E   E E E E E E E E  4x
e|----------0-------|---------0--------|
B|o-------0---0-----|-------0---0-----o|
G|------5-------5---|-----5-------5----|
D|----7-------------|---7-----------7--|
A|o-0-------------7-|-6---------------o|
E|------------------|------------------|
|
|     PM|               PM----|
|   E E E E E E E E   E E E E E E Q    4x
|------------------|------------------|
|o-----------------|-----------------o|
|----------------9-|-8---------8-9----|
|--7-------7---7-9-|-8---------8-9----|
|o-7-----7-7-7-7-7-|-6-6-6-6-6-6-7---o|
|--5-5-5-0-5-0-5---|------------------|


       E E E E E E E E   E E E E E E E E  4x
e|--------1-------1-|-------1-------5--|
B|o-----3-------3---|-----3-------3---o|
G|----2-------3-----|---4-------5------|
D|--0-------0-------|-0-------0--------|
A|o-----------------|-----------------o|
E|------------------|------------------|
|
 |     E E E E E E E E   E E E E E E E E  4x
e|------------------|------------------|
B|o-----------------|-----------------o|
G|--2-2-2-2-3-3-3-3-|-4-4-4-4-5-5-5-5--|
D|--0-0-0-0-0-0-0-0-|-0-0-0-0-0-0-0-0--|
A|o-----------------|-----------------o|
E|------------------|------------------|


      PM|               PM----|
    E E E E E E E E   E E E E E E Q   4x
|------------------|-----------------|
|o-----------------|----------------o|
|----------------9-|-8---------8-9---|
|--7-------7---7-9-|-8---------8-9---|
|o-7-----7-7-7-7-7-|-6-6-6-6-6-6-7--o|
|--5-5-5-0-5-0-5---|-----------------|
|
|     PM|               PM----|
|   E E E E E E E E   E E E E E E Q   4x
|------------------|-----------------|
|o-----------------|----------------o|
|----------------9-|-8---------8-9---|
|--7-------7---7-9-|-8---------8-9---|
|o-7-----7-7-7-7-7-|-6-6-6-6-6-6-7--o|
|--5-5-5-0-5-0-5---|-----------------|


     E E E E E E E E   E E E E E E E E  4x
e|------------------|------------------|
B|o-----------------|-----------------o|
G|--2-2-2-2-3-3-3-3-|-4-4-4-4-5-5-5-5--|
D|--0-0-0-0-0-0-0-0-|-0-0-0-0-0-0-0-0--|
A|o-----------------|-----------------o|
E|------------------|------------------|
|
 |   E E E E E E E E   E E E E E E E E  4x
e|------------------|------------------|
B|o-----------------|-----------------o|
G|--2-2-2-2-3-3-3-3-|-4-4-4-4-5-5-5-5--|
D|--0-0-0-0-0-0-0-0-|-0-0-0-0-0-0-0-0--|
A|o-----------------|-----------------o|
E|------------------|------------------|


      PM|               PM----|
    E E E E E E E E   E E E E E E Q   4x
|------------------|-----------------|
|o-----------------|----------------o|
|----------------9-|-8---------8-9---|
|--7-------7---7-9-|-8---------8-9---|
|o-7-----7-7-7-7-7-|-6-6-6-6-6-6-7--o|
|--5-5-5-0-5-0-5---|-----------------|
|
|     PM|               PM----|
|   E E E E E E E E   E E E E E E Q   4x
|------------------|-----------------|
|o-----------------|----------------o|
|----------------9-|-8---------8-9---|
|--7-------7---7-9-|-8---------8-9---|
|o-7-----7-7-7-7-7-|-6-6-6-6-6-6-7--o|
|--5-5-5-0-5-0-5---|-----------------|


     E E E E E E E E   E E E E E E E E  4x
e|------------------|------------------|
B|o-----------------|-----------------o|
G|--2-2-2-2-3-3-3-3-|-4-4-4-4-5-5-5-5--|
D|--0-0-0-0-0-0-0-0-|-0-0-0-0-0-0-0-0--|
A|o-----------------|-----------------o|
E|------------------|------------------|
|
 |   E E E E E E E E   E E E E E E E E  4x
e|------------------|------------------|
B|o-----------------|-----------------o|
G|--2-2-2-2-3-3-3-3-|-4-4-4-4-5-5-5-5--|
D|--0-0-0-0-0-0-0-0-|-0-0-0-0-0-0-0-0--|
A|o-----------------|-----------------o|
E|------------------|------------------|


      PM--|               PM--|
    E E E E E +E  E E   E E E E E +E  E E
|--------------------|-------------------|
|o-------------------|-------------------|
|--------------------|-------------------|
|--------------------|-------------------|
|o-0-------0-(0)-2-3-|-0-------0-(0)-2-3-|
|----0-0-0-----------|---1-1-1-----------|
|
|     PM--|               PM--|
|   E E E E E +E  E E   E E E E E +E  E E
|--------------------|-------------------|
|o-------------------|-------------------|
|--------------------|-------------------|
|--------------------|-------------------|
|o-0-------0-(0)-2-3-|-0-------0-(0)-2-3-|
|----0-0-0-----------|---1-1-1-----------|


    PM--|               PM--|
  E E E E E +E  E E   E E E E Q   E E
|-------------------|------------------|
|-------------------|-----------------o|
|-------------------|------------------|
|-------------------|------------------|
|-0-------0-(0)-2-3-|-5-------3---2---o|
|---2-2-2-----------|---3-3-3-------3--|
|
|   PM--|               PM--|
| E E E E E +E  E E   E E E E Q   E E
|-------------------|------------------|
|-------------------|-----------------o|
|-------------------|------------------|
|-------------------|------------------|
|-0-------0-(0)-2-3-|-5-------3---2---o|
|---2-2-2-----------|---3-3-3-------3--|


      PM--|               PM--|
    E E E E E +E  E E   E E E E E +E  E E
|--------------------|-------------------|
|o-------------------|-------------------|
|--------------------|-------------------|
|--------------------|-------------------|
|o-0-------0-(0)-2-3-|-0-------0-(0)-2-3-|
|----0-0-0-----------|---1-1-1-----------|
|
 |   Q   E E Q     E E   Q   E E Q     E E
e|--------------------|-------------------|
B|o-------------------|-------------------|
G|------2-4-5-----4-2-|-----2-4-5-----4-2-|
D|--2-----------------|-3-----------------|
A|o-------------------|-------------------|
E|--------------------|-------------------|


    PM--|               PM--|
  E E E E E +E  E E   E E E E Q    E E
|-------------------|-------------------|
|-------------------|------------------o|
|-------------------|-------------------|
|-------------------|-------------------|
|-0-------0-(0)-2-3-|-5-------3----2---o|
|---2-2-2-----------|---3-3-3--------3--|
|
 | Q   E E Q     E E   Q   E E Q  E E
e|-------------------|-------------------|
B|-------------------|------------------o|
G|-----2-4-5-----4-2-|-----2-4-5--7-5----|
D|-4-----------------|-5-----------------|
A|-------------------|------------------o|
E|-------------------|-------------------|


      PM--|               PM--|
    E E E E E +E  E E   E E E E E +E  E E
|--------------------|-------------------|
|o-------------------|-------------------|
|--------------------|-------------------|
|--------------------|-------------------|
|o-0-------0-(0)-2-3-|-0-------0-(0)-2-3-|
|----0-0-0-----------|---1-1-1-----------|
|
 |   Q   E E Q     E E   Q   E E Q     E E
e|--3---3-5-6-----5-3-|-----3-5-6-----5-3-|
B|o-------------------|-4-----------------|
G|--------------------|-------------------|
D|--------------------|-------------------|
A|o-------------------|-------------------|
E|--------------------|-------------------|


    PM--|               PM--|
  E E E E E +E  E E   E E E E E +E    E E
|-------------------|----------------------|
|-------------------|---------------------o|
|-------------------|----------------------|
|-------------------|----------------------|
|-0-------0-(0)-2-3-|-5-------3-(3)---2---o|
|---2-2-2-----------|---3-3-3-----------3--|
|
 | Q   E E Q     E E   Q   E E Q     E E
e|-----3-5-6-----5-3-|-----3-5-6-----8-5----|
B|-5-----------------|-6-------------------o|
G|-------------------|----------------------|
D|-------------------|----------------------|
A|-------------------|---------------------o|
E|-------------------|----------------------|


        PM|                                PM---------------|
   E    E  E    E  E    E  E    E    E     E     E     E    E  E    Q
|---------------------------------|--------------------------------------|
|---------------------------------|--------------------------------------|
|-------------------------------9-|--8-------------------------8----9----|
|--7---------------7-------7----9-|--8-------------------------8----9----|
|--7------------7--7----7--7----7-|--6-----6-----6-----6----6--6----7----|
|--5----5--5----0--5----0--5------|--------------------------------------|
|
 | Gtr IV
 |  Q       Q       Q       Q         E     E     E     Q       Q       E
e|---------------------------------|--------------------------------------|
B|-21b23---21b23---21b23---21b23---|-21b23-21b23-21b23-21b23---21b23---17-|
G|---------------------------------|--------------------------------------|
D|---------------------------------|--------------------------------------|
A|---------------------------------|--------------------------------------|
E|---------------------------------|--------------------------------------|


        PM|                           PM--------|
   E    E E  E    E E  E    E    E    E  E    E E  E     Q
|-----------------------------|----------------------------------|
|-----------------------------|----------------------------------|
|---------------------------9-|--8-----------------8-----9-------|
|--7--------------7----7----9-|--8-----------------8-----9-------|
|--7---------7----7-7--7----7-|--6----6--6----6-6--6-----7-------|
|--5----5-5--0----5-0--5------|----------------------------------|
|
 |  Q.        Q.        Q         Q       Q.        E     E  E
e|-21b23-----21b23-----21b23---|-21b23---21b23-----21b23-17-21b23-|
B|-----------------------------|----------------------------------|
G|-----------------------------|----------------------------------|
D|-----------------------------|----------------------------------|
A|-----------------------------|----------------------------------|
E|-----------------------------|----------------------------------|


         PM---|
   E     E     E     E     E     E     E     E
|----------------------------------------------------|
|----------------------------------------------------|
|--------------------------------------------9-------|
|--7-----------------------7-----------7-----9-------|
|--7-----------------7-----7-----7-----7-----7-------|
|--5-----5-----5-----0-----5-----0-----5-------------|
|
 |  S  S  E     S  S  E     S  S  E     S  S  S     S
e|-17-17-21b23-17-17-21b23-17-17-21b23-17-17-21b23-17-|
B|----------------------------------------------------|
G|----------------------------------------------------|
D|----------------------------------------------------|
A|----------------------------------------------------|
E|----------------------------------------------------|


            PM------------------|                                PM---|
   E        E     E        E     E     E     Q             E     E     E        E     E
      E E E
|-------------------------------------------------------|---------------------------------------------|
|-------------------------------------------------------|---------------------------------------------|
|--8-----------------------------------8-----9----------|-------------------------------------------9-|
|--8-----------------------------------8-----9----------|--7--------------------------7-----------7-9-|
|--6--------6-----6--------6-----6-----6-----7----------|--7--------------------7-----7---------7-7-7-|
|-------------------------------------------------------|--5-----5-----5--------0-----5---------0-5---|
|
 |  S     S  S  S  S     S  S  S  S  S  S  S  S  S  S  S    S  S  S  S  S     S  S  S  S
   Q..
e|-------------------------------------------------------|---------------------------------------------|
B|-21b23-17----17-21b23-17-------------------------------|---------------------------------------------|
G|----------20-------------20-17----17-20-17-------------|---------------------------------------------|
D|-------------------------------20----------20-17----17-|-20-17---------------------------------------|
A|-------------------------------------------------20----|-------20-17-------17-20-17------------------|
E|-------------------------------------------------------|-------------21b23----------21b23-17---------|


        PM--------------|
   E    E     E    E    E     E    Q
|--------------------------------------------|
|--------------------------------------------|
|--8--------------------------8----9---------|
|--8--------------------------8----9---------|
|--6----6-----6----6----6-----6----7---------|
|--------------------------------------------|
|
 |  S  S S  S  S S  S  S S  S  S S  S  S S  S
e|-12-10-9----10-9-------9--------------------|
B|---------12------12-10---12-10-9-12-10-9----|
G|-----------------------------------------11-|
D|--------------------------------------------|
A|--------------------------------------------|
E|--------------------------------------------|


   E     E    E    E    E    E     E    E
e|----------------------------------------------|
B|----------------------------------------------|
G|-2-----2----2----2----3----3-----3----3-------|
D|-0-----0----0----0----0----0-----0----0-------|
A|----------------------------------------------|
E|----------------------------------------------|
|
 | S  S  S S  S  S S  S    S S  S  S S  S  S S
e|----------------------------------------------|
B|----------------------------------------------|
G|-9-13-11-9----11-9---------9------------------|
D|-----------12------12---11---12-11-9-12-11-9--|
A|----------------------------------------------|
E|----------------------------------------------|


    E    E     E     E    E     E    E    E       E    E  E    E  E   E E  E
e|---------------------------------------------|-----------------------------|
B|---------------------------------------------|-----------------------------|
G|--4----4-----4-----4----5-----5----5----5----|--2----2--2----2--3---3-3--3-|
D|--0----0-----0-----0----0-----0----0----0----|--0----0--0----0--0---0-0--0-|
A|---------------------------------------------|-----------------------------|
E|---------------------------------------------|-----------------------------|
|
 |                                                                  TP
 |  S  S S  S  S  S  S  S S  S  S S  S  S S  S    S S  S  S S  S  S H      E
e|---------------------------------------------|-----------------------------|
B|---------------------------------------------|-----------------------------|
G|---------------------------------------------|-----------------------------|
D|----11-9-------11----------------------------|-----------------------------|
A|-12------12-11----12-11-9-12-11-9----11-9----|----9------------------------|
E|----------------------------------12------12-|-10---12-10-9-12-10-9------4-|


   E E E E   E E E E    E E E E       E E  E E
e|--------------------|-------------------------|
B|--------------------|-------------------------|
G|-4-4-4-4---5-5-5-5--|-2-2-2-2-------3-3--3-3--|
D|-0-0-0-0---0-0-0-0--|-0-0-0-0-------0-0--0-0--|
A|--------------------|-------------------------|
E|--------------------|-------------------------|
|
 |                               T    T    T
 | S E E S E E S E E.   S S E E  S E  S E  S E.
e|--------------------|-------------------------|
B|--------------------|-------------------------|
G|--------------------|-------------------------|
D|-------------4h5h7--|-----5-7-14p7-15p7-16p7--|
A|-------4h5h7--------|-5-7---------------------|
E|-0h5h7--------------|-------------------------|


    E     E     E     E     E     E     E     E
e|-------------------------------------------------|
B|-------------------------------------------------|
G|--4-----4-----4-----4-----5-----5-----5-----5----|
D|--0-----0-----0-----0-----0-----0-----0-----0----|
A|-------------------------------------------------|
E|-------------------------------------------------|
|
 |  S  S  S  S  S  S  S  S  S  S  S  S  S  S  S  S
e|-------10s20-16----------10s20-16----------10s20-|
B|----10----------17----10----------17----10-------|
G|-10----------------10----------------10----------|
D|-------------------------------------------------|
A|-------------------------------------------------|
E|-------------------------------------------------|


    E     E     E     E           E     E     E  E
e|----------------------------------------------------|
B|----------------------------------------------------|
G|--2-----2-----2-----2-----------3-----3-----3--3----|
D|--0-----0-----0-----0-----------0-----0-----0--0----|
A|----------------------------------------------------|
E|----------------------------------------------------|
|
 |                                            ~~
 |  S  S  S  S  S  S  S  S  S  S  S  S  S  S  E
e|-16----20-16----20-16----20-16----20-16-------------|
B|----17-------17-------17-------17-------17s19-------|
G|----------------------------------------------------|
D|----------------------------------------------------|
A|----------------------------------------------------|
E|----------------------------------------------------|


    E     E     E     E     E     E     E     E
e|-------------------------------------------------|
B|-------------------------------------------------|
G|--4-----4-----4-----4-----5-----5-----5-----5----|
D|--0-----0-----0-----0-----0-----0-----0-----0----|
A|-------------------------------------------------|
E|-------------------------------------------------|
|
 |  E     E     E     E     E     E     E     E
e|-21b23-21b23-21b23-21b23-21b23-21b23-21b23-21b23-|
B|-------------------------------------------------|
G|-------------------------------------------------|
D|-------------------------------------------------|
A|-------------------------------------------------|
E|-------------------------------------------------|


              PM-|                                PM---------------|
   E          E   E  E     E  E  E     E    E     E     E     E     E     E     Q
|----------------------------------------|--------------------------------------------------|
|----------------------------------------|--------------------------------------------------|
|--------------------------------------9-|--8-----------------------------8-----9-----------|
|--7-----------------------7-----7-----9-|--8-----------------------------8-----9-----------|
|--7-----------------7-----7--7--7-----7-|--6-----6-----6-----6-----6-----6-----7-----------|
|--5----------5---5--0-----5--0--5-------|--------------------------------------------------|
|
 |  E     Q.       S  S  S  S  S  S  S  S    S  S  S  S  S  S  S  S  S  S  S  S  S  S  S  S
e|-21b23-21b23----20-18-21-20-18-20-19-17-|-20-19-17-18-17-15-18-17-15-15-13-12-15-13-12-13--|
B|----------------------------------------|--------------------------------------------------|
G|----------------------------------------|--------------------------------------------------|
D|----------------------------------------|--------------------------------------------------|
A|----------------------------------------|--------------------------------------------------|
E|----------------------------------------|--------------------------------------------------|


         PM---|                                PM----------|
   E     E     E    E    E   E   E   E     E   E   E   E   E   E   Q
|----------------------------------------|-----------------------------------|
|----------------------------------------|-----------------------------------|
|------------------------------------9---|-8-------------------8---9---------|
|--7---------------------7-------7---9---|-8-------------------8---9---------|
|--7----------------7----7---7---7---7---|-6---6---6---6---6---6---7---------|
|--5-----5-----5----0----5---0---5-------|-----------------------------------|
|
 |  S  S  S  S  S  S S S  S S S S S S S S   S S S S S S S S S S S S S S S S
e|-12-10-13-12-10-10-9-7-10-9-7-8-7-5-8-7-|-5-8-5-----------------------------|
B|----------------------------------------|-----8-5-5-8-5---------------------|
G|----------------------------------------|---------7-----7-5---5-7-5---------|
D|----------------------------------------|-------------------7-------7-5-----|
A|----------------------------------------|-------------------------------7---|
E|----------------------------------------|-----------------------------------|


   E   E   E   E    E    E   E    E      E   E    E    E   E    E    E   E
e|------------------------------------|---------------------------------------|
B|------------------------------------|---------------------------------------|
G|-2---2---2---2----3----3---3----3---|--4---4----4----4---5----5----5---5----|
D|-0---0---0---0----0----0---0----0---|--0---0----0----0---0----0----0---0----|
A|------------------------------------|---------------------------------------|
E|------------------------------------|---------------------------------------|
|
 |                                                                       ~
 | S S S S S S S  S S S  S S S  S S S    S S S  S S S  S S S  S S S  S S E
e|------------------------------------|---------------------------------------|
B|------------------------------------|---------------------------------------|
G|------------------------------------|---------------------------------------|
D|-5-7-5------------------------------|---------------------------------------|
A|-------7-5--------------------------|---------------------------------------|
E|-----------8-5-10-5-8-10-5-8-10-5-8-|-10-5-8-10-5-8-10-8-5-10-5-8-10-5-8----|


    E   E E   E      E   E  E   E        E    E   E    E      E    E   E    E
e|-------------------------------------|----------------------------------------|
B|-------------------------------------|----------------------------------------|
G|--2---2-2---2------3---3--3---3------|-4----4---4----4------5----5---5----5---|
D|--0---0-0---0------0---0--0---0------|-0----0---0----0------0----0---0----0---|
A|-------------------------------------|----------------------------------------|
E|-------------------------------------|----------------------------------------|
|
 |                   T      T      T        T        T      T      T      T
 |  S S S S S S S S  S S S  S S S  S S   S  S S S    S S S  S S S  S S S  S S S
e|-------------------------------------|----------------------------------------|
B|-------------------------------------|---------------------------------19-5h7-|
G|------------------12p5h7-13p5h7-14p5h|=7-15p5h7---16p5h7-17p5h7-18p5h7--------|
D|------------5-7-9--------------------|----------------------------------------|
A|--------5-7--------------------------|----------------------------------------|
E|-10-8-5------------------------------|----------------------------------------|


    W
e|-------------------------------------------|
B|-------------------------------------------|
G|--5\---------------------------------------|
D|--0\---------------------------------------|
A|-------------------------------------------|
E|-------------------------------------------|
|
 |  T      T      T      T      T
 |  S S S  S S S  S S S  S S S  S S S  S
e|-------------------------------------------|
B|-20p5h7-21p5h7-22p5p3-23p5h7-24p5h7-24\----|
G|-------------------------------------------|
D|-------------------------------------------|
A|-------------------------------------------|
E|-------------------------------------------|


      PM|               PM----|
    E E E E E E E E   E E E E E E Q   4x
|------------------|-----------------|
|o-----------------|----------------o|
|----------------9-|-8---------8-9---|
|--7-------7---7-9-|-8---------8-9---|
|o-7-----7-7-7-7-7-|-6-6-6-6-6-6-7--o|
|--5-5-5-0-5-0-5---|-----------------|
|
|   Gtr III
|     PM|               PM----|
|   E E E E E E E E   E E E E E E Q   4x
|------------------|-----------------|
|o-----------------|----------------o|
|----------------9-|-8---------8-9---|
|--7-------7---7-9-|-8---------8-9---|
|o-7-----7-7-7-7-7-|-6-6-6-6-6-6-7--o|
|--5-5-5-0-5-0-5---|-----------------|


     E E E E E E E E   E E E E E E E E  4x
e|------------------|------------------|
B|o-----------------|-----------------o|
G|--2-2-2-2-3-3-3-3-|-4-4-4-4-5-5-5-5--|
D|--0-0-0-0-0-0-0-0-|-0-0-0-0-0-0-0-0--|
A|o-----------------|-----------------o|
E|------------------|------------------|
|
 |   E E E E E E E E   E E E E E E E E  4x
e|------------------|------------------|
B|o-----------------|-----------------o|
G|--2-2-2-2-3-3-3-3-|-4-4-4-4-5-5-5-5--|
D|--0-0-0-0-0-0-0-0-|-0-0-0-0-0-0-0-0--|
A|o-----------------|-----------------o|
E|------------------|------------------|


      PM--|               PM--|
    E E E E E +E  E E   E E E E E +E  E E  4x
|--------------------|--------------------|
|o-------------------|-------------------o|
|--------------------|--------------------|
|--------------------|--------------------|
|o-0-------0-(0)-2-3-|-0-------0-(0)-2-3-o|
|----0-0-0-----------|---1-1-1------------|

      PM--|               PM--|
    E E E E E +E  E E   E E E E E +E  E E  4x
|--------------------|--------------------|
|o-------------------|-------------------o|
|--------------------|--------------------|
|--------------------|--------------------|
|o-0-------0-(0)-2-3-|-0-------0-(0)-2-3-o|
|----0-0-0-----------|---1-1-1------------|


        PM--|               PM--|
      E E E E E +E  E E   E E E E E +E  E E  4x
|--------------------|--------------------|
|o-------------------|-------------------o|
|--------------------|--------------------|
|--------------------|--------------------|
|o-2-------2-(2)-4-5-|-2-------2-(2)-4-5-o|
|----2-2-2-----------|---3-3-3------------|
|
|       PM--|               PM--|
|     E E E E E +E  E E   E E E E E +E  E E  4x
|--------------------|--------------------|
|o-------------------|-------------------o|
|--------------------|--------------------|
|--------------------|--------------------|
|o-2-------2-(2)-4-5-|-2-------2-(2)-4-5-o|
|----2-2-2-----------|---3-3-3------------|


      PM--|               PM--|
    E E E E E +E  E E   E E E E E +E  E E  4x
|--------------------|--------------------|
|o-------------------|-------------------o|
|--------------------|--------------------|
|--------------------|--------------------|
|o-3-------3-(3)-5-6-|-3-------3-(3)-5-6-o|
|----3-3-3-----------|---4-4-4------------|
|
|     PM--|               PM--|
|   E E E E E +E  E E   E E E E E +E  E E  4x
|--------------------|--------------------|
|o-------------------|-------------------o|
|--------------------|--------------------|
|--------------------|--------------------|
|o-3-------3-(3)-5-6-|-3-------3-(3)-5-6-o|
|----3-3-3-----------|---4-4-4------------|


        PM--|               PM--|
      E E E E E +E  E E   E E E E E +E  E E  4x
|--------------------|--------------------|
|o-------------------|-------------------o|
|--------------------|--------------------|
|--------------------|--------------------|
|o-5-------5-(5)-7-8-|-5-------5-(5)-7-8-o|
|----5-5-5-----------|---6-6-6------------|
|
|       PM--|               PM--|
|     E E E E E +E  E E   E E E E E +E  E E  4x
|--------------------|--------------------|
|o-------------------|-------------------o|
|--------------------|--------------------|
|--------------------|--------------------|
|o-5-------5-(5)-7-8-|-5-------5-(5)-7-8-o|
|----5-5-5-----------|---6-6-6------------|


     H..       E   W         4x     E   E E E E E E E   E E E E E E E E  4x
e|--------------|-----------|------------0-------|---------0--------|
B|o-------------|----------o|o---------0---0-----|-------0---0-----o|
G|------------9-|-8---------|--------5-------5---|-----5-------5----|
D|--7---------9-|-8---------|------7-------------|---7-----------7--|
A|o-7---------7-|-6--------o|o-0---------------7-|-6---------------o|
E|--5-----------|-----------|--------------------|------------------|
|
 |   H..       E   W         4x     H..             E   W                4x
e|--------------|-----------|--------------------|------------------|
B|o-------------|----------o|o-------------------|-----------------o|
G|------------9-|-8---------|------------------9-|-8----------------|
D|--7---------9-|-8---------|--7---------------9-|-8----------------|
A|o-7---------7-|-6--------o|o-7---------------7-|-6---------------o|
E|--5-----------|-----------|--5-----------------|------------------|


                                                       ~~~
     E E E E E E E E   E E E E E E E E  4x E E E Q.   +Q       E E E Q.   Q
e|--------1-------1-|-------1-------5--|-------3----(3)--|-----------------|
B|o-----3-------3---|-----3-------3---o|-----3-----------|o----------------|
G|----2-------3-----|---4-------5------|---2-------------|-----------------|
D|--0-------0-------|-0-------0--------|-0---------------|--5-4-4-4----5---|
A|o-----------------|-----------------o|-----------------|o-5-4-4-4----5---|
E|------------------|------------------|-----------------|--3-2-2-2----3---|
|
 |                                                     ~~~
 |   H       H         H       H        4x E E E Q.   +Q       E E E Q.   Q
e|------------------|------------------|-------3----(3)--|-----------------|
B|o-----------------|-----------------o|-----3-----------|o----------------|
G|--2-------3-------|-4-------5--------|---2-------------|-----------------|
D|--0-------0-------|-0-------0--------|-0---------------|--5-4-4-4----5---|
A|o-----------------|-----------------o|-----------------|o-5-4-4-4----5---|
E|------------------|------------------|-----------------|--3-2-2-2----3---|


   Q  H.                 E E E Q.   Q
e|---------------------|---------------|
B|---------------------|---------------|
G|---------------------|---------------|
D|-2--2----------------|-5-4-4-4----5--|
A|-2--2----------------|-5-4-4-4----5--|
E|-0--0----------------|-3-2-2-2----3--|
|
 | Q  Q     Q..    +S    E E E Q.   Q
e|---------------------|---------------|
B|--------/12-----(12)-|---------------|
G|---------------------|---------------|
D|-2--2----------------|-5-4-4-4----5--|
A|-2--2----------------|-5-4-4-4----5--|
E|-0--0----------------|-3-2-2-2----3--|


   E E   H.       4x      E  E  E  E  Q   E  E
e|----------------|-------------------------|
B|---------------o|o-12-10h12--8-10--10h12--|
G|----------------|-------------------------|
D|-2-----2--------|-------------------------|
A|-2-----2-------o|o------------------------|
E|-0-----0--------|-------------------------|
|
 | Q     H.       4x      E  E  E  E  Q   E  E
e|-----/12--------|--14-12h14-10-12--12h14--|
B|---------------o|o------------------------|
G|----------------|-------------------------|
D|-2--------------|-------------------------|
A|-2-------------o|o------------------------|
E|-0--------------|-------------------------|


              ~~~~
    E  E  Q   Q..    +S     E  E  E  E  Q   E  E
e|-----------------------|-----------------------|
B|--8h10-----------------|-12-10h12--8-10--10h12-|
G|--------7---9------(9)-|-----------------------|
D|-----------------------|-----------------------|
A|-----------------------|-----------------------|
E|-----------------------|-----------------------|
|
 |            ~~~~
 |  E  E  Q   Q..    +S     E  E  E  E  Q   E  E
e|-10h12-----------------|-14-12h14-10-12--12h14-|
B|-------10--12-----(12)-|-----------------------|
G|-----------------------|-----------------------|
D|-----------------------|-----------------------|
A|-----------------------|-----------------------|
E|-----------------------|-----------------------|


          ~~
    E  E  H     +Q            E  E  E  E  Q   E  E
e|--------------------|--19-17h19-15-17--17h19--|
B|--8h10-------------o|o------------------------|
G|--------9-----(9)---|-------------------------|
D|--------------------|-------------------------|
A|-------------------o|o------------------------|
E|--------------------|-------------------------|
|
 |  E  E  H     +Q            E  E  E  E  Q   E  E
e|-10h12--------------|--14-12h14-10-12--12h14--|
B|-------12----(12)--o|o------------------------|
G|--------------------|-------------------------|
D|--------------------|-------------------------|
A|-------------------o|o------------------------|
E|--------------------|-------------------------|


              ~~~~
    E  E  Q   Q..    +S     E  E  E  E   Q   E  E
e|-15h17-----------------|-19-17h19-15--17--17h19-|
B|-------15--17-----(17)-|------------------------|
G|-----------------------|------------------------|
D|-----------------------|------------------------|
A|-----------------------|------------------------|
E|-----------------------|------------------------|
|
 |            ~~~~
 |  E  E  Q   Q..    +S     E  E  E  E   Q   E  E
e|-10h12-----------------|-14-12h14-10--12--12h14-|
B|-------10--12-----(12)-|------------------------|
G|-----------------------|------------------------|
D|-----------------------|------------------------|
A|-----------------------|------------------------|
E|-----------------------|------------------------|

          ~~~
    E  E  H      +Q               W
e|-15h19--------------|------------------|
B|-------17-----(17)-o|------------------|
G|--------------------|------------------|
D|--------------------|------------------|
A|-------------------o|------------------|
E|--------------------|------------------|
|
 |        ~~~                       ~~
 |  E  E  H      +Q      E Q  +E  E Q.
e|-10h12--------------|------------------|
B|-------12-----(12)-o|------------------|
G|--------------------|-8-8--(8)-9-9-----|
D|--------------------|-8-8--(8)-9-9-----|
A|-------------------o|-6-6--(6)-7-7-----|
E|--------------------|------------------|

                              Gtr I
    W            W            E E E E E E E E   E E E E E E E E
e|------------|-------------|---5---------5---|---5---------5---|
B|------------|-------------|-------6-------6-|-------6-------6-|
G|------------|-------------|-----7-----7-----|-----7-----7-----|
D|------------|-------------|-0-------7-------|-0-------7-------|
A|------------|-------------|-----------------|-----------------|
E|------------|-------------|-----------------|-----------------|
|
 | +W           +W                    W                 W
e|------------|-------------|-----------------|-----------------|
B|------------|-------------|-----------------|-----------------|
G|-(9)--------|-(9)\--------|-----------------|-----------------|
D|-(9)--------|-(9)\--------|-----------------|-----------------|
A|-(7)--------|-(7)\--------|-----------------|-----------------|
E|------------|-------------|-----------------|-----------------|


   E E E E E E E E   E E E E E E E E   E E E E  E E E E   E E E E  E E E E
e|---6---------6---|---6---------6---|---8----------8---|---8----------8---|
B|-------6-------6-|-------6-------6-|-------8--------8-|-------8--------8-|
G|-----7-----7-----|-----7-----7-----|-----9------9-----|-----9------9-----|
D|-0-------8-------|-0-------8-------|-0-------10-------|-0-------10-------|
A|-----------------|-----------------|------------------|------------------|
E|-----------------|-----------------|------------------|------------------|
|
 |       W                   W                  W                  W
e|-----------------|-----------------|------------------|------------------|
B|-----------------|-----------------|------------------|------------------|
G|-----------------|-----------------|------------------|------------------|
D|-----------------|-----------------|------------------|------------------|
A|-----------------|-----------------|------------------|------------------|
E|-----------------|-----------------|------------------|------------------|


     E E E E E E E E  3x E E E E E E E E   E E E E E E E E   E E E E E E E E
e|----5---------5----|---5---------5---|---6---------6---|---6---------6----|
B|o-------6-------6-o|-------6-------6-|-------6-------6-|-------6-------6--|
G|------7-----7------|-----7-----7-----|-----7-----7-----|-----7-----7------|
D|--0-------7--------|-0-------7-------|-0-------8-------|-0-------8--------|
A|o-----------------o|-----------------|-----------------|------------------|
E|-------------------|-----------------|-----------------|------------------|
|
 |         W          3x         W                 W                   W
e|-------------------|-----------------|-----------------|------------------|
B|o-----------------o|-----------------|-----------------|------------------|
G|-------------------|-----------------|-----------------|------------------|
D|-------------------|-----------------|-----------------|------------------|
A|o-----------------o|-----------------|-----------------|------------------|
E|-------------------|-----------------|-----------------|------------------|


   E E E E  E E E E   E E E E  E E E E   E E E E E E E E   W
e|---8----------8---|---8----------8---|---5---------5---|-5-------|
B|-------8--------8-|-------8--------8-|-------6-------6-|-6-------|
G|-----9------9-----|-----9------9-----|-----7-----7-----|-7-------|
D|-0-------10-------|-0-------10-------|-0-------7-------|---------|
A|------------------|------------------|-----------------|---------|
E|------------------|------------------|-----------------|---------|
|
 |       W                     W                 W         W
e|------------------|------------------|-----------------|-5tr6----|
B|------------------|------------------|-----------------|---------|
G|------------------|------------------|-----------------|---------|
D|------------------|------------------|-----------------|---------|
A|------------------|------------------|-----------------|---------|
E|------------------|------------------|-----------------|---------|


                     6/8
                      Gtr II
   +W                 Q.   Q.     Q.   Q.     Q.    E Q    H.
e|-(x)------------|------------|-----------|------------|-----|
B|-(x)------------|o-----------|-----------|------------|-----|
G|-(x)------------|--7----5----|-7----3----|-7----10s9--|-7---|
D|----------------|--7----5----|-7----3----|-7----10s9--|-7---|
A|----------------|o-5----3----|-5----1----|-5-----8s7--|-5---|
E|----------------|------------|-----------|------------|-----|
|
 |  W                 Q.   Q.     Q.   Q.     Q.    E Q    H.
e|--x-------------|------------|-----------|------------|-----|
B|----------------|o-----------|-----------|------------|-----|
G|----------------|--7----5----|-7----3----|-7----10s9--|-7---|
D|----------------|--7----5----|-7----3----|-7----10s9--|-7---|
A|----------------|o-5----3----|-5----1----|-5-----8s7--|-5---|
E|----------------|------------|-----------|------------|-----|


   1.     2.184
  3/4    4/4
          ~~~~~~~~~~~~~~~~~~~~~~~~~~~~~~~
   W      W            +W
e|-----|------------|------------------|
B|----o|------------|------------------|
G|-----|-7----------|-(7)--------------|
D|-----|-7----------|-(7)--------------|
A|----o|-5----------|-(5)--------------|
E|-----|------------|------------------|
|
 | W      H    Q  Q     Q   Q  E E  E E
e|-----|------------|------------------|
B|----o|------------|------------------|
G|-----|------------|------------------|
D|-----|------------|----------------7-|
A|----o|---------7--|--5---5--7-9-10---|
E|-----|------------|------------------|


  ~~~~~~~~~~~~~~~~~~~~~~~~~~~~~~~~~~~~~~~~~~~~~~
   +W                   +W                  +W
e|--------------------|-------------------|--------|
B|--------------------|-------------------|--------|
G|-(7)----------------|-(7)---------------|-(7)----|
D|-(7)----------------|-(7)---------------|-(7)----|
A|-(5)----------------|-(5)---------------|-(5)----|
E|--------------------|-------------------|--------|
|
 |                                      ~
 |  E   E E E E E E E    E   E E E  E E Q   +W
e|--------------------|-------------------|--------|
B|------------7h8-7---|-------------------|--------|
G|--------8-9-------9-|--8----------------|--------|
D|--9--10-------------|-----10-9p7--------|--------|
A|--------------------|------------10-9-7-|-(7)----|
E|--------------------|-------------------|--------|


       ~~~
    E  H..
e|-----7\--------*|----|
B|-----7\--------*|----|
G|-----7\--------*|----|
D|-----7\--------*|----|
A|-----7\--------*|----|
E|-----7\--------*|----|
|
 |     ~~~
 | +E  H..
e|-----7\--------*|----|
B|-----7\--------*|----|
G|-----7\--------*|----|
D|-----7\--------*|----|
A|-(7)-7\--------*|----|
E|-----7\--------*|----|

Tablature Legend
----------------
 h   - hammer-on
 p   - pull-off
 b   - bend
 pb  - pre-bend
 r   - bend release (if no number after the r, then release immediately)
 /\  - slide into or out of (from/to "nowhere")
 s   - legato slide
 S   - shift slide
  - natural harmonic
[n]  - artificial harmonic
n(n) - tapped harmonic
 ~   - vibrato
 tr  - trill
 T   - tap
 TP  - trem. picking
 PM  - palm muting
\n/  - tremolo bar dip; n = amount to dip
 \n  - tremolo bar down
 n/  - tremolo bar up
/n\  - tremolo bar inverted dip
 =   - hold bend; also acts as connecting device for hammers/pulls
 <>  - volume swell (louder/softer)
 x   - on rhythm slash represents muted slash
 o   - on rhythm slash represents single note slash

Misc Legend
-----------
 |  - bar
|  - double bar
|o - repeat start
o| - repeat end
*|  - double bar (ending)
 :  - bar (freetime)
 
comments
print report bad tab
106 comments total. Showing first comments.
+4 reply
hammerkill wrote on March 20 2002, 12:00 am

wow! great tab, man! best tab for "ktulu" i've ever seen! THIS TAB ROCKS!!

+5 reply
AngelusI86 wrote on October 18 2002, 12:00 am

good tab but it goes like this:

e---5---------5---
B-------6---5---6-
G-----7-----------
D-0-------7-------
A-----------------
E-----------------

0 reply
slackrabbit wrote on December 16 2002, 12:00 am

nah actually it sounds better with 7 on the G. And way easier to play

I want to post or [tab]
guest
You may want to rate the tab now too:
select rating
Please do not post tabs as comments. Select "correction" instead!