Oops, an error
Loading. Please wait.
We have an official The Call Of Ktulu tab made by UG professional guitarists. Check out the tab »
×
6,083 views 9 this week
1 commentread comment
1 2 3 4 5
x 6
add to favorites
×
Save as Personal and add changes to this tab that will be seen only by you. Learn more ›
×
You can save this tab as Personal to edit and correct it or add notes. All changes will be seen only by you. Learn more »
launch autoscroll
font size
0
reset
guitar tuner
backing track
0:00
0:00
edit
Autoscroll
slow
fast
+/-
esc
set tempo
stop
Band : Metallica
Album : S&M
Song : The Call Of Ktulu
Bassist : Jason Newsted
Tuning : Half-Step (D#, Eb)

Bass starts at : 1:05

Gb|----------|
Db|----------|
Ab|--0--7-6\-| x4
Eb|----------|
Bb|----------|

Gb|-------------------|
Db|--0--0--0----------|
Ab|-------------------| x3
Eb|-------------------|
Bb|-------------------|

Gb|------------------------------|
Db|---0--0-----------------------|
Ab|--------2-3-5-5-5-5-5-5-5-7-5-|
Eb|------------------------------|
Bb|------------------------------|

Gb|-----------------------------|
Db|------7-5-7--5---------------|
Ab|---0-----------7-6—6-6-6-7-7-| x4
Eb|-----------------------------|
Bb|-----------------------------|

Gb|------7-7---7-----7---7------9-9-|
Db|----------8---8/9---8---8/10-----|
Ab|---5-----------------------------| x3
Eb|---------------------------------|
Bb|---------------------------------|

Gb|------7-7---7-----9-9-9------------|
Db|----------8---8/9-------10-9\--5---|
Ab|---5-----------------------------7-|
Eb|-----------------------------------|
Bb|-----------------------------------|

Gb|-----------------------------|
Db|------7-5-7--5---------------|
Ab|---0-----------7-6—6-6-6-7-7-| x4
Eb|-----------------------------|
Bb|-----------------------------|

Gb|-7---7---9---9--9-10-10-10-10-12-10-12-9h10p9-|
Db|---5---5---7----------------------------------|
Ab|----------------------------------------------| x2
Eb|----------------------------------------------|
Bb|----------------------------------------------|

Gb|---7-7-7/9-9-9-9-9/10-10-12-10-9\-------|
Db|-0--------------------------------7-7-7-|
Ab|----------------------------------------|
Eb|----------------------------------------|
Bb|----------------------------------------|

Gb|---7-7-7/9-9-9-9-9h10-9-----------------|
Db|-0----------------------10-9b-----------|
Ab|------------------------------10-7-5----|
Eb|----------------------------------------|
Bb|----------------------------------------|

Gb|-----------------------------|
Db|------7-5-7--5---------------|
Ab|---0-----------7-6—6-6-6-7-7-| x4
Eb|-----------------------------|
Bb|-----------------------------|

Gb|-7---7--9---9-9-10-10-10-9--------------|
Db|---5--5---7-----------------7-7---------|
Ab|----------------------------------------| x3
Eb|----------------------------------------|
Bb|----------------------------------------|

                |-3-||-3-||-3-----------------------------|
Gb|-7---7--9---9-9-10-10-10-9-7---------------------------|
Db|---5--5---7------------------10-9-7--------------------|
Ab|------------------------------------10-9-7-------------|
Eb|-------------------------------------------10-9-7------|
Bb|--------------------------------------------------7-0--|


Gb|---------------------|------------------------|--------------------------|
Db|---------------------|------------------------|--------------------------|
Ab|-----------0----2--3-|--------------0--2---3--|--------------0-----2--3--|
Eb|0--0--0--0---0-------|--1--1--1--1------------|--2--2--2--2-----0--------|
Bb|---------------------|------------------------|--------------------------|
                                                                            #
Gb|-------------------------|   Play this riff 4 times                      #
Db|-------------------------|                                               #
Ab|---5-----------3--2------|                                               #
Eb|------3--3--3---------3--|                                               #
Bb|-------------------------|################################################

Gb|----------------------|------------------------|-------------------------|
Db|----------------------|------------------------|-------------------------|
Ab|----------3-----5---6-|--------------3--5---6--|--------------3-----5--6-|
Eb|--3--3--3---3-----3---|--4--4--4--4------------|--5--5--5--5-----5-------|
Bb|----------------------|------------------------|-------------------------|
                                                                            #
Gb|--------------------------|                                              #
Db|--------------------------|               Play this riff twice           #
Ab|---8-----------6--5-------|                                              #
Eb|------6--6--6---------6---|                                              #
Bb|--------------------------|###############################################

Gb|-----------------------------|
Db|------7-5-7--5---------------|
Ab|---0-----------7-6—6-6-6-7-7-| x4
Eb|-----------------------------|
Bb|-----------------------------|

Gb|------7-7---7-----7---7------9-9-|
Db|----------8---8/9---8---8/10-----|
Ab|---5-----------------------------| x3
Eb|---------------------------------|
Bb|---------------------------------|

Gb|------7-7---7-----9-9-9------------|
Db|----------8---8/9-------10-9\--5---|
Ab|---5-----------------------------7-|
Eb|-----------------------------------|
Bb|-----------------------------------|

Gb|-----------------------------|
Db|------7-5-7--5---------------|
Ab|---0-----------7-6—6-6-6-7-7-| x4
Eb|-----------------------------|
Bb|-----------------------------|

Gb|--7---7---9---9999-10101010-10-9-7----|
Db|----5---5---7----------------------8-7|
Ab|--------------------------------------|
Eb|--------------------------------------|
Bb|--------------------------------------|

Gb|--777777788888888999999991010101010101099999999-|
Db|------------------------------------------------|
Ab|------------------------------------------------| x2
Eb|------------------------------------------------|
Bb|------------------------------------------------|

Gb|----16p15\-|
Db|-----------| x4
Ab|-----------|
Eb|-----------|
Bb|-----------|

Gb|-----------------------------|
Db|------7-5-7--5---------------|
Ab|---0-----------7-6—6-6-6-7-7-| x4
Eb|-----------------------------|
Bb|-----------------------------|

Gb|-----------------------------------|
Db|-----------------------------------|
Ab|-----------------------------------|
Eb|----------------------1111111111---| Those are 11’s not 1’s
Bb|-00000000000000-11h12--------------|

Gb|------7-7---7-----7---7------9-9-|
Db|----------8---8/9---8---8/10-----|
Ab|---5-----------------------------| x3
Eb|---------------------------------|
Bb|---------------------------------|

Gb|------7-7---7-----9-9-9------------|
Db|----------8---8/9-------10-9\--5---|
Ab|---5-----------------------------7-|
Eb|-----------------------------------|
Bb|-----------------------------------|

Gb|---------------------------|------------------------|
Db|---------------------------|------------------------|
Ab|---0-----------0-----2--3--|--0-----------0--2--3---|  x4
Eb|------0--0--0-----0--------|-----1--1--1------------|
Bb|---------------------------|------------------------|

Gb|---------------------------|------------------------|
Db|---------------------------|------------------------|
Ab|---2-----------2-----4--5--|--2-----------2--4--5---|  x4
Eb|------2--2--2-----2--------|-----3--3--3------------|
Bb|---------------------------|------------------------|

Gb|---------------------------|-----------------------|
Db|---------------------------|-----------------------|
Ab|---3-----------3-----5--6--|--3-----------3--5--6--|   x3
Eb|------3--3--3-----3--------|-----4--4--4-----------|
Bb|---------------------------|-----------------------|

Gb|---------------------------|-----------------------|
Db|---------------------------|-----------------------|
Ab|---5-----------5-----7--8--|--5-----------5--7--8--|   x3
Eb|------5--5--5-----5--------|-----6--6--6-----------|
Bb|---------------------------|-----------------------|

Gb|-----------------|---------------------------|
Db|-----------------|----7--6-------------------|
Ab|---0--0-7-6~6/10-|--0------7-5--7------------|
Eb|-----------------|----------------7-0--------|
Bb|-----------------|---------------------------|

Gb|--------------------------------------|
Db|----7-5-7--7/10-7-----7---------------|
Ab|--0---------------9-8---8-7-----------|
Eb|----------------------------9-7-9-0---|
Bb|--------------------------------------|

Gb|-----------------------------|
Db|------7-5-7--5---------------|
Ab|---0-----------7-6—6-6-6-7-7-|
Eb|-----------------------------|
Bb|-----------------------------|

Gb|-----------------------------------|
Db|-----------------------------------|
Ab|--0-7-6----------------------------| x4
Eb|-----------------------------------|
Bb|-----------------------------------|

Gb|-----------|
Db|--0--0--0--| x4
Ab|-----------|
Eb|-----------|
Bb|-----------|

Gb|---------------------------|##############################
Db|---------------------------|                             #
Ab|----------------7--7-------|                             #
Eb|--3-2-2---3--0-----0-------|                             #
Bb|---------------------------|                             #
                               This is all one riff play x8 #
Gb|---------------------------|                             #
Db|---------------------------|                             #
Ab|------------------7--------|                             #
Eb|--3-2-2---3--0----0--------|                             #
Bb|---------------------------|##############################

Gb|--------------|
Db|--------------|
Ab|--------------|
Eb|--0--0---2--2-|
Bb|--------------|

Gb|-----------------------|----------------------|
Db|-----------------------|----------------------|
Ab|-----5----3----5----1--|----5----8----555555--|
Eb|-----------------------|----------------------|
Bb|-----------------------|----------------------|

Gb|-----------------------|--------------|
Db|-----------------------|--------------|
Ab|-----5----3----5----1--|----5----8----|
Eb|-----------------------|--------------|
Bb|-----------------------|-----------0--|

Gb|--------------------------------------|
Db|--------------------------------------|
Ab|--------------------------------------|
Eb|--------------------------------------|
Bb|--12\10/12/14\12/14/15\14/15/17\15/17/|


Symbol Glossary:
~       hold note
X       mute after playing note
/       slide up
\       slide down
^       bend up
__3__   triplet

            
            
Suggest correction
Creating personal tab
Creating personal tab
You can edit any tab online and save it as your Personal.

You can edit, replace or remove any tab part or add personal notes – all changes will be seen only by you.

Personal tabs can be accessed anytime from any device, even offline.
Learn more »
comments
print report bad tab
1 comment total.
0 reply
jerry_madsen99 10 Oct 02, 2016 04:44 PM

Are you slow? Ride the lightning was Cliff, you dummy.

guest
You may want to rate the tab now too:
select rating
Wanna post a correction for this tab? Suggest correction