Oops, an error
Loading. Please wait.

The Call Of Ktulu Tab

version 5
175,500 views 255 this week
4 commentsread comments
1 2 3 4 5
x 15
add to favorites
launch autoscroll
font size
0
reset
how to read this tab
guitar tuner
Autoscroll
slow
fast
+/-
esc
set tempo
stop
Help us to improve Ultimate-Guitar.com Take our survey!
×
METALLICA
The Call Of Ktulu


  [Intro] (x2)

         x2                x2                x2
e|---5---------5---|---6---------6---|---8----------8---|
B|-------6-------6-|-------6-------6-|-------8--------8-|
G|-----7-----7-----|-----7-----7-----|-----9------9-----|
D|-0-------7-------|-0-------8-------|-0-------10-------|
A|-----------------|-----------------|------------------|
E|-----------------|-----------------|------------------|

         x2
e|---5---------5---|
B|-------6-------6-|
G|-----7-----7-----|
D|-0-------7-------|
A|-----------------|
E|-----------------|

e|---------0------|---------0-------------|
B|-------0---0----|-------0---0----- -----|
G|-----5------5---|-----5-------5--- -----|  x4
D|---7------------|---7-----------7-  ----|
A|-0------------7-|-6--------------- -----|
E|----------------|-----------------------|

e|-------1-|-------1-|-------1-|-------5------|
B|-----3---|-----3---|-----3---|-----3--- ----|
G|---2-----|---3-----|---4-----|---5----- ----| x4
D|-0-------|-0-------|-0-------|-0-------  ---|
A|---------|---------|---------|--------- ----|
E|---------|---------|---------|--------------|

e|---------0------|---------0-------------|
B|-------0---0----|-------0---0----- -----|
G|-----5------5---|-----5-------5--- -----|  x4
D|---7------------|---7-----------7-  ----|
A|-0------------7-|-6--------------- -----|
E|----------------|-----------------------|

e|-------1-|-------1-|-------1-|-------5------|
B|-----3---|-----3---|-----3---|-----3--- ----|
G|---2-----|---3-----|---4-----|---5----- ----| x4
D|-0-------|-0-------|-0-------|-0-------  ---|
A|---------|---------|---------|--------- ----|
E|---------|---------|---------|--------------|

  x4
e|-----------0-----------------0-------|
B|---------0---0-------------0---0-----|
G|--2-----5-----5--9-8-----5-------5---|
D|--2---7----------9-8---7-----------7-|
A|--0--------------7-6-----------------|
E|-------------------------------------|

  Guitar 1 (x4)                Guitar 2 (x4)
e|-----1------1------1------5- ---------------------------------|
B|---3------3------3------3--- ---------------------------------|
G|-2------3------4------5----- -2-2-2-2-3-3-3-3-4-4-4-4-5-5-5-5-|
D|---------------------------- -0-0-0-0-0-0-0-0-0-0-0-0-0-0-0-0-|
A|---------------------------- ---------------------------------|
E|---------------------------- ---------------------------------|

  x4
e|-----------0-----------------0-------|
B|---------0---0-------------0---0-----|
G|--2-----5-----5--9-8-----5-------5---|
D|--2---7----------9-8---7-----------7-|
A|--0--------------7-6-----------------|
E|-------------------------------------|

  Guitar 1 (x4)                    Guitar 2 (x4)
e|-----1------1------1------5- ---------------------------------|
B|---3------3------3------3--- ---------------------------------|
G|-2------3------4------5----- -2-2-2-2-3-3-3-3-4-4-4-4-5-5-5-5-|
D|---------------------------- -0-0-0-0-0-0-0-0-0-0-0-0-0-0-0-0-|
A|---------------------------- ---------------------------------|
E|---------------------------- ---------------------------------|

       x4                        x4
e|--------------- ---------------------------------|
B|--------------- ---------------------------------|
G|--2-----9-8---- -2-2-2-2-3-3-3-3-4-4-4-4-5-5-5-5-|
D|--2-----9-8---- -0-0-0-0-0-0-0-0-0-0-0-0-0-0-0-0-|
A|--0-----7-6---- ---------------------------------|
E|--------------- ---------------------------------|

       x4                        x4
e|--------------- ---------------------------------|
B|--------------- ---------------------------------|
G|--2-----9-8---- -2-2-2-2-3-3-3-3-4-4-4-4-5-5-5-5-|
D|--2-----9-8---- -0-0-0-0-0-0-0-0-0-0-0-0-0-0-0-0-|
A|--0-----7-6---- ---------------------------------|
E|--------------- ---------------------------------|

  x2
e|-------------------------------------|
B|-------------------------------------|
G|-------------------------------------|
D|-------------------------------------|
A|-0-0-2-3---0-2-3---0-2-3-0-3-2-3-0---|
E|---------1-------2-------------------|

  Guitar 1 (x2)
e|-------------------------------------|
B|-------------------------------------|
G|-------------------------------------|
D|-------------------------------------|
A|-0-0-2-3---0-2-3---0-2-3-0-3-2-3-0---|
E|---------1-------2-------------------|

  Guitar 2 (x2)
e|----------------------------------------------------------|
B|----------------------------------------------------------|
G|----------------------------------------------------------|
D|-----------------------------------------------------0----|
A|-0-0-2-2/3-2-0---0-2-2/3-2-0---0-2-2/3-2-0---0-2-2/3---3--|
E|---------------1-------------2-------------3--------------|

  Guitar 1 (x2)
e|-------------------------------------|
B|-------------------------------------|
G|-------------------------------------|
D|-------------------------3-----------|
A|-3-3-5-6---3-5-6---3-5-6---6-5---3---|
E|---------4-------5-------------6-----|

  Guitar 2 (x2)
e|-----------------------------------------------------------|
B|-----------------------------------------------------------|
G|------------------------------------------------------5----|
D|--5-5-7-7/8-7-5---5-7-7/8-7-5---5-7-7/8-7-5---5-7-7/8---8--|
A|----------------6-------------7-------------8--------------|
E|-----------------------------------------------------------|


 [Solo]
e|------------------------------21-21-21-21-21-21-21-21-21-17--21-17-|
B|-17-21-21-21-21-21-21-21-21-17-------------------------------------|
G|-------------------------------------------------------------------|
D|-------------------------------------------------------------------|
A|-------------------------------------------------------------------|
E|-------------------------------------------------------------------|

e|-------------------------------------------------------------------|
B|-21-17--17-21-17---------------------------------------------------|
G|------20--------20-17--17-20-17------------------------------------|
D|---------------------20--------20-17--17-20-17---------------------|
A|------------------------------------20--------20-17--17-20-17------|
E|---------------------------------------------------21--------21-17-|

e|-12-10-9--10-9-----9-----------------------------------------------|
B|--------12----12-10-12-10-9-12-10-9--------------------------------|
G|-----------------------------------11-9-13-11-9--11-9-----9--------|
D|-----------------------------------------------12----12-11-12-11-9-|
A|-------------------------------------------------------------------|
E|-------------------------------------------------------------------|

e|E-------------------------------------------------------------------|
B|--------------------------------------------------------------------|
G|--------------------------------------------------------------------|
D|-12-11-9----11-9-------11-------------------------------------------|
A|---------12------12-11----12-11-9-12-11-9----11-9-------9-----------|
E|------------------------------------------12------12-10---12-10-9---|

e|-------------------------------------------------------------------|
B|-------------------------------------------------------------------|
G|-------------------------------------------------------------------|
D|-------------------------4h5h7----5-7-14t715t717t7-----------------|
A|-------------------4h5h7-------5-7---------------------------------|
E|-12-10-9\\\4-0h5h7-------------------------------------------------|

e|-------10/20-16----|
B|----10----------17-|
G|-10----------------|
D|-------------------|
A|-------------------|
E|-------------------|

e|---20-16---20-16---20-16---20-16------21-21-21-21-21-21-21-21-21-20|
B|--------17------17------17-----17/19-------------------------------|
G|-------------------------------------------------------------------|
D|-------------------------------------------------------------------|
A|-------------------------------------------------------------------|
E|-------------------------------------------------------------------|

e|--18-21-20-18-20-19-17-20-19-17-18-17-15-18-17-15-15-13-12-15-13-12|
B|-------------------------------------------------------------------|
G|-------------------------------------------------------------------|
D|-------------------------------------------------------------------|
A|-------------------------------------------------------------------|
E|-------------------------------------------------------------------|

e|E-13-12-10-13-12-10-10-9-7-10-9-7-8-7-5-8-7-5-8-5-------------------|
B|-----------------------------------------------8-5-5-8-5------------|
G|---------------------------------------------------7-----7-5-5-7-5--|
D|------------------------------------------------------------7-------|
A|--------------------------------------------------------------------|
E|--------------------------------------------------------------------|

e|-------------------------------------------------------------------|
B|-------------------------------------------------------------------|
G|-------------------------------------------------------------------|
D|-7-5-5-7-5---------------------------------------------------------|
A|----7-----7-5------------------------------------------------------|
E|-------------8-5-10-5-8-10-5-8-10-5-8-10-5-8-10-8-5-10-5-8-10-5-8--|

e|-------------------------------------------------------------------|
B|-------------------------------------------------------------------|
G|----------------12-5-7-13-5-7-14-5-7-15-5-7-16-5-7-17-5-7-18-5-7---|
D|---------5-7-9-----------------------------------------------------|
A|------5-7----------------------------------------------------------|
E|-10-8-5------------------------------------------------------------|

e|-------------------------------------------------------------------|
B|---------19-5-7-20-5-7-21-5-7-22-5-7-23-5-7-24-5-7-24--------------|
G|-------------------------------------------------------------------|
D|-------------------------------------------------------------------|
A|-------------------------------------------------------------------|
E|-------------------------------------------------------------------|

       x4                        x4
e|--------------- ---------------------------------|
B|--------------- ---------------------------------|
G|--2-----9-8---- -2-2-2-2-3-3-3-3-4-4-4-4-5-5-5-5-|
D|--2-----9-8---- -0-0-0-0-0-0-0-0-0-0-0-0-0-0-0-0-|
A|--0-----7-6---- ---------------------------------|
E|--------------- ---------------------------------|

  Guitar 1 (x2)                         Guitar 2 (x4)
e|------------------------------------- -------------------------------------|
B|------------------------------------- -------------------------------------|
G|------------------------------------- -------------------------------------|
D|------------------------------------- -3-3-3-3-3-3-3-3-2-2-2-2-2-2-2-2-----|
A|-0-0-2-3---0-2-3---0-2-3---0-2-3----- -3-3-3-3-3-3-3-3-2-2-2-2-2-2-2-2-----|
E|---------1-------0-------1-------0--- -1-1-1-1-1-1-1-1-0-0-0-0-0-0-0-0-----|

  Guitar 1 (x2)                         Guitar 2 (x4)
e|------------------------------------- -------------------------------------|
B|------------------------------------- -------------------------------------|
G|------------------------------------- -------------------------------------|
D|------------------------------------- -5-5-5-5-5-5-5-5-4-4-4-4-4-4-4-4-----|
A|-2-2-4-5---2-4-5---2-4-5---2-4-5----- -5-5-5-5-5-5-5-5-4-4-4-4-4-4-4-4-----|
E|---------3-------2-------3-------2--- -3-3-3-3-3-3-3-3-2-2-2-2-2-2-2-2-----|

  Guitar 1 (x2)                         Guitar 2 (x4)
e|------------------------------------- -------------------------------------|
B|------------------------------------- -------------------------------------|
G|------------------------------------- -------------------------------------|
D|------------------------------------- -6-6-6-6-6-6-6-6-5-5-5-5-5-5-5-5-----|
A|-3-3-5-6---3-5-6---3-5-6---3-5-6----- -6-6-6-6-6-6-6-6-5-5-5-5-5-5-5-5-----|
E|---------4-------3-------4-------3--- -4-4-4-4-4-4-4-4-3-3-3-3-3-3-3-3-----|

  Guitar 1 (x2)                         Guitar 2 (x4)
e|------------------------------------- -------------------------------------|
B|------------------------------------- -------------------------------------|
G|------------------------------------- -------------------------------------|
D|-0-0-2-3---0-2-3---0-2-3---0-2-3----- -8-8-8-8-8-8-8-8-7-7-7-7-7-7-7-7-----|
A|---------1-------0-------1-------0--- -8-8-8-8-8-8-8-8-7-7-7-7-7-7-7-7-----|
E|------------------------------------- -6-6-6-6-6-6-6-6-5-5-5-5-5-5-5-5-----|

      x4                        x4
e|--------------- -----------0-----------------0-------|
B|--------------- ---------0---0-------------0---0-----|
G|--2-----9-8---- --2-----5-----5--9-8-----5-------5---|
D|--2-----9-8---- --2---7----------9-8---7-----------7-|
A|--0-----7-6---- --0--------------7-6-----------------|
E|--------------- -------------------------------------|

  Guitar 1 (x4)                      Guitar 2 (x4)
e|-----1--------1--------1--------5- --------------|
B|---3--------3--------3--------3--- --------------|
G|-2--------3--------4--------5----- ---7-8-9------|
D|---------------------------------- ---7-8-9------|
A|---------------------------------- ---5-6-7------|
E|---------------------------------- --------------|

                            x16
e|------3---- ----------------------------------|
B|----5------ ----------------------------------|
G|--4-------- ----------------------------------|
D|----------- ---5--4--2--4--5--2---------------|
A|----------- ---5--4--2--4--5--2---------------|
E|----------- ---3--2--0--2--3--0---------------|

         x2                x2
e|---5---------5---|---6---------6---|
B|-------6-------6-|-------6-------6-|
G|-----7-----7-----|-----7-----7-----|
D|-0-------7-------|-0-------8-------|
A|-----------------|-----------------|
E|-----------------|-----------------|

         x2                x2
e|---8----------8---|---5---------5-------|
B|-------8--------8-|-------6-------6-----|
G|-----9------9-----|-----7-----7---------|
D|-0-------10-------|-0-------7-----------|
A|------------------|---------------------|
E|------------------|---------------------|

         x2                x2
e|---5---------5---|---6---------6---|
B|-------6-------6-|-------6-------6-|
G|-----7-----7-----|-----7-----7-----|
D|-0-------7-------|-0-------8-------|
A|-----------------|-----------------|
E|-----------------|-----------------|

         x2                  x1
e|---8----------8---|---5---------5-----5--|
B|-------8--------8-|-------6-----------6--|
G|-----9------9-----|-----7-----7---7---7--|
D|-0-------10-------|-0-------7---------7--|
A|------------------|----------------------|
E|------------------|----------------------|

  Outro (x2)
e|------------------------|
B|------------------------|
G|--7--5--7--3--7--10--7--|
D|--7--5--7--3--7--10--7--|
A|--5--3--5--1--5--8---5--|
E|------------------------|



************************************

| h  Hammer-on
| t  Tapping
| /  Slide up
| \  Slide down

************************************
Suggest correction
comments
print report bad tab
4 comments total. Showing first comments.
0 reply
mOsEswuzhere 10 May 10, 2002 12:00 AM

good translation! Been playing that song for years

0 reply
inferno822 10 May 11, 2002 12:00 AM

good tab, but it is Ktulu, not Khtulu or however you spelled it

+2 reply
BasketCase87 80 Jan 29, 2005 12:00 AM

u must be seeing things Inferno822........ more to the point, great tab

guest
You may want to rate the tab now too:
select rating
Wanna post a correction for this tab? Suggest correction