Oops, an error
Loading. Please wait.

The Day That Never Comes Chords

version 1
version 1
230,733 views 360 this week
5 commentsread comments
1 2 3 4 5
excellent!
x 53
add to favorites
launch autoscroll
font size
0
reset
transpose
0
reset
simplify chords
display chords
guitar tuner
Autoscroll
slow
fast
+/-
esc
set tempo
stop
Help us to improve Ultimate-Guitar.com Take our survey!
×
Author
Artist: Metallica
Song: The Day that Never Comes
Album: Death Magnetic


[Intro] x5

e|----12----------12----------12----------12-----------14----------14----------12----------12----|
B|--13---13----13----13----12----12----12----12-----15----15----15----15----13----13----13----13-|
G|14--------14----------12----------12----------12----------12----------14----------14-----------|
D|-----------------------------------------------------------------------------------------------|
A|-----------------------------------------------------------------------------------------------|
E|-----------------------------------------------------------------------------------------------|


[Verse]

C
Am G Em C x4

Am G                 Em
   Born to push you around
C                   Am
  Better just stay down
G         Em
 You put away,
            C
He hits the flesh,
             Am
You hit the ground
G                 Em
Mouth so full of lies
C                   Am
 Tend to block your eyes
G                Em
 Just keep them closed,
               C        D
Keep praying, just keep waiting


[Chorus]

Am  G                  Em   C
    Waiting for the one
Am     G                Em   C
   The day that never comes
Am          G                       Em   C
   When you stand up and feel the warmth
Am         G                Em   C     (E5)
   But the sunshine never comes,   no
E                          Am  G     Am
  No, the sunshine never comes

Am G   Am


[Verse]

Am G                      Em
   Pushed you across that line
C                     Am
  Just stay down this time
G             Em
  Hide in yourself,
             C                      Am
Crawl in yourself, you’ll have your time
G                  Em
God I’ll make them pay
C                   Am
  Take you back one day
G              Em                 C      D      Am
 I’ll end this day, I’ll splatter color on this grey


[Chorus]

G                 Em  C
Waiting for the one,
Am    G                Em  C
  The day that never comes
Am         G                      Em    C
  When you stand up and feel the warmth
Am        G               Em    C  (E5)
  But the sunshine never comes

E5 G5 A5 C5 B5

C5 E5 B5 E5 x2

E5 x3       |
B5 Bb5 E5   |  x2

E5
Love is a four letter word,
E5               B5 Bb5 E5
And never spoken here
E5
Love is a four letter word
E5                  B5 Bb5 E5
Here in this prison

  F#5    A5  F#5  A5 F#5     A5
I suffer this no     longer,
     F#5  A5 F#5 A5
I’ll put  an end to,
A5  B5 G#5    B5  C#5 A5
This I swear, this I  swear
    C#5 D5   B5
The sun will shine
D5
This I swear, This I swear,
       E
This I swear


[Solo]
Suggest correction
What's this?
You can suggest a correction to this tab. Community and Mods will review your correction and vote to approve or reject it.
comments
print report bad tab
5 comments total. Showing first comments.
0 reply
brokenheart77 95 wrote on September 16 2008, 07:13 pm

good job!

0 reply
h0t3l 4l4b4m4 27 wrote on November 16 2008, 04:41 am

nice but don't tahy play this in the intro too:
e-------------------
b-3-5---------------
g-----2-2/3--0------
d-------------------
a-------------------
e-------------------

+5 reply
kbfenderstrat@g 22 wrote on November 24 2008, 11:33 pm

Since you posted the chords, and a lot of people associate the chords with acoustic guitar, it may be helpful to add/change the opening riff. Its easier to play it down an octave like this:

e|-----0-------0-------0-------0-------2-------2----
B|---1---1---1---1---0---0---0---0---3---3---3---3--
G|-2-------2-------0-------0-------0-------0--------
D|--------------------------------------------------
A|--------------------------------------------------
E|--------------------------------------------------

Also this sounds sweet as an addition if you do play the song with another guitarist like in the original recording, if you have your "Hetfield" of the group play the high already posted part and your "Hammet" play this part.

guest
You may want to rate the tab now too:
select rating
Please do not post tabs as comments. Select "correction" instead!