Oops, an error
Loading. Please wait.

The Day That Never Comes Tab

version 1
609,188 views 96 this week
18 commentsread comments
1 2 3 4 5
accurate
x 52
add to favorites
launch autoscroll
font size
0
reset
how to read this tab
guitar tuner
Autoscroll
slow
fast
+/-
esc
set tempo
stop
Help us to improve Ultimate-Guitar.com Take our survey!
×
Author
Metallica - The Day That Never Comes
Transcribed by Exo M7 (jd0922[at]yahoo[dot]com)
8/21/08-8/22/08
Updated 9/5/08
Updated 10/14/08 with parts from my Power Tab for better accuracy.


[Intro]

Guitar 1 (Clean guitar w/chorus)

e|-------12----------12----------12----------12----|
B|----13----13----13----13----12----12----12----12-|
G|-14----------14----------12----------12----------|
D|-------------------------------------------------|
A|-------------------------------------------------|
E|-------------------------------------------------|

e|-------14----------14----------12----------12----|
B|----15----15----15----15----13----13----13----13-|
G|-12----------12----------14----------14----------|
D|-------------------------------------------------|
A|-------------------------------------------------|
E|-------------------------------------------------| x2

Guitar 2 (Lead electric w/overdrive)

e|-----------------------------------------|
B|-----------------------------------------|
G|-7--7/9-------------7--7/9---------------|
D|--------7-7-7/9-5~----------7-7-7/9--7~--|
A|-5--5/7-------------5--5/7---------------|
E|--------5-5-5/7-3-----------5-5-5/7--5---| x2

e|---------------------------------------------------------|
B|---------------------------------------------------------|
G|-7--7/9--------------------------------------------------|
D|--------7-7-7/9-5--5-5/7-7-7/9-9-9/10-9-5/7--7h9-10-9p7--|
A|-5--5/7--------------------------------------------------|
E|--------5-5-5/7-3--3-3/5-5-5/7-7-7/8--7-3/5--------------|

           | 3 | | 3 | | 3 |      | 3 |
e|----------------------------------------------------|
B|----------------------------------------------------|
G|-------------------5---5-7-5----5---------7-9-7-----|
D|-5-7-7---5-7-9-7-9---9--------9---9/-9-10-------10--|
A|----------------------------------------------------|
E|----------------------------------------------------|

e|------------------------|
B|-----------------8--10~-|
G|-7--9--10--9--10--------|
D|------------------------|
A|------------------------|
E|------------------------|


[Verse 1]

Guitar 1 (clean)

e|-----------------------------------------------------------------|
B|-----1---0--------------------------1---0-----1-----1---0--------|
G|---2-------2---0------0-------0-----------2-------0-------0---2--|
D|--------------------0-------0------------------------------------|
A|-0-----0-----0----2-------2-------2-------------3-----3-----3----|
E|----------------3---------------0-----------0--------------------| x8


[Chorus 1]

Guitar 3 (rhythm w/distortion)

e|------------------------------------0-------------|
B|------------------------------------0-------------|
G|-2---2-2---------0----0-0-----------0-------------|
D|-2---2-2---------0----0-0--------2--2---5-5--5-5--|
A|-0---0-0-xx-3-2--x----x-x--------2------3-3--2-2--|
E|-----------------3----3-3-xx-5-3-0----------------| x4

Guitar 2 (lead w/overdrive)

e|---------------------------------------------------|
B|---------------------------------------------------|
G|-5~------5-5h7-5-4~------4-4h5-4--------5-5--5-5---|
D|---------------------------------5-----------------|
A|---------------------------------------------------|
E|---------------------------------------------------| x2

e|----------------------------|
B|----------------------------|
G|-------------------0-1-2-1--|
D|-------------0-2-3----------|
A|-------0-2-3----------------|
E|-0-3-4----------------------|


[Verse 2]

Guitar 2 (lead w/overdrive)

e|-----------------------------------------|
B|-----------------------------------------|
G|-7--7/9-------------7--7/9---------------|
D|--------7-7-7/9-5~----------7-7-7/9--7~--|
A|-5--5/7-------------5--5/7---------------|
E|--------5-5-5/7-3-----------5-5-5/7--5---| x2

e|---------|
B|---------|
G|---------|
D|-7h9p7~--|
A|---------|
E|---7-5---|

Guitar 1 (clean)

e|-----------------------------------------------------------------|
B|-----1---0--------------------------1---0-----1-----1---0--------|
G|---2-------2---0------0-------0-----------2-------0-------0---2--|
D|--------------------0-------0------------------------------------|
A|-0-----0-----0----2-------2-------2-------------3-----3-----3----|
E|----------------3---------------0-----------0--------------------| x4


[Chorus 2]

Guitar 3 (rhythm w/distortion)

e|------------------------------------0-------------|
B|------------------------------------0-------------|
G|-2---2-2---------0----0-0-----------0-------------|
D|-2---2-2---------0----0-0--------2--2---5-5--5-5--|
A|-0---0-0-xx-3-2--x----x-x--------2------3-3--2-2--|
E|-----------------3----3-3-xx-5-3-0----------------| x4

Guitar 2 (lead w/overdrive)

e|---------------------------------------------------|
B|---------------------------------------------------|
G|-5~------5-5h7-5-4~------4-4h5-4--------5-5--5-5---|
D|---------------------------------5-----------------|
A|---------------------------------------------------|
E|---------------------------------------------------| x2

e|----------------------------|
B|----------------------------|
G|-------------------0-1-2-1--|
D|-------------0-2-3----------|
A|-------0-2-3----------------|
E|-0-3-4----------------------|


[Bridge]

e|-------------------------------------------------|
B|-------------------------------------------------|
G|----------------------------2--------5--------4--|
D|-------------5--------------2--------5--------4--|
A|-------0-2-3-5--------0-2-3-0--------3--------2--|
E|-0-3-4-------3--0-3-4----------0-3-4----0-3-4----|

e|----------------------------|
B|----------------------------|
G|-------------------0-1-2-1--|
D|-------------0-2-3----------|
A|-------0-2-3----------------|
E|-0-3-4----------------------|

e|---------------------------------|
B|---------------------------------|
G|---------------------------------|
D|-5---2---4---2---5---2---4---2---|
A|-3---2---2---2---3---2---2---2---|
E|-----0-------0-------0-------0/--|

e|---------------------------------------------------------------------|
B|---------------------------------------------------------------------|
G|---------------------------------------------------------------------|
D|---------------------------------------------------------------------|
A|-7-7---10-7-10--7-7---10-7-10--7-7---10-7-10---9-8-------------------|
E|-0-0---0--0-0---0-0---0--0-0---0-0---0--0-0----7-6-0-0-0-0-0-0-3-0-2-| x4

e|--------------------------------------------------------------------------|
B|--------------------------------------------------------------------------|
G|--------------------------------------------------------------------------|
D|-----------------------------------------2-4---4-6-2-6-7-4--7-7-7--7-7-7--|
A|-4-4----------4-4----------4-4-----------0-2-6-2-4-0-4-5-2--5-5-5--5-5-5--|
E|-2-2---5-2-5--2-2---5-2-5--2-2---5-2-5-------4----------------------------|

e|----------------------------|
B|----------------------------|
G|-------------------0-1-2-1--|
D|-------------0-2-3----------|
A|-------0-2-3----------------|
E|-0-3-4----------------------| x2

(drums)

e|------------------------------------------------------------------------------------------|
B|------------------------------------------------------------------------------------------|
G|------------------------------------------------------------------------------------------|
D|---------------------------------------------------------------------------------------1~-|
A|------------------------------------------------------------------------------------------|
E|-0-0-0-0-0-0-0-0-0-0---0-0-0-0-0-0-0-0-0-0---0-0-0-0-1p0---0-0-0-0-1p0--0-0-0-0-1p0-0-0---| x3

e|----------------|----------------|----------------|-----------------|
B|----------------|----------------|----------------|-----------------|
G|-9--9-9-9-7-----|-7--7-7-7-------|----------------|-----------------|
D|------------9---|----------9-7---|-9--9-9-9-7-5---|-7-5-----5-------|
A|----------------|----------------|----------------|-----7-----7-5---|
E|----------------|----------------|----------------|-----------------|
|
e|----------------|----------------|----------------|-----------------|
B|-8--8-8-8-7-----|-7--7-7-7-------|----------------|-----------------|
G|------------9---|----------9-7---|-9--9-9-9-7-----|-7---------------|
D|----------------|----------------|------------9---|---9-7---9-7-5---|
A|----------------|----------------|----------------|-----------------|
E|----------------|----------------|----------------|-----------------|
|
e|----------------|----------------|----------------|-----------------|
B|----------------|----------------|----------------|-----------------|
G|----------------|----------------|----------------|-----------------|
D|-2--------------|-4--------------|-5--------------|-----------------|
A|-2--------------|-4--------------|-5--------------|-----------------|
E|-0--0-0-0-0-0-0-|-2--2-2-2-2-2-2-|-3--3-3-3-3-3-3-|-3-3-3-3-3-3-3-3-|


e|---------------|---------------|----------------|-------------|
B|---------------|---------------|----------------|-------------|
G|-9--9-9-9-7----|-7--7-7-7------|----------------|-9--7--5-7---|
D|------------9--|----------9-7--|-9--9-9-9-7-5---|-------------|
A|---------------|---------------|----------------|-------------|
E|---------------|---------------|----------------|-------------|
|
e|---------------|---------------|----------------|-------------|
B|-8--8-8-8-7----|-7--7-7-7------|----------------|-8--7----7---|
G|------------9--|----------9-7--|-9--9-9-9-7-----|-------9-----|
D|---------------|---------------|------------9---|-------------|
A|---------------|---------------|----------------|-------------|
E|---------------|---------------|----------------|-------------|
|
e|---------------|---------------|----------------|-------------|
B|---------------|---------------|----------------|-------------|
G|-5----------7--|-4----------7--|----------------|-------------|
D|-5----------7--|-4----------7--|-7--------------|-5--4----4---|
A|-3--3-3-3-3-5--|-2--2-2-2-2-5--|-7--------------|-5--4--2-4---|
E|---------------|---------------|-5--5-5-5-5-5-5-|-3--2--0-2---|


e|----------------|----------------|----------------|-----------------|
B|-8--8-8-8-7-----|-7--7-7-7-------|----------------|-----------------|
G|------------9---|----------9-7---|-9--9-9-9-7-----|-7---------------|
D|----------------|----------------|------------9---|---9-7---9-7-5---|
A|----------------|----------------|----------------|-----------------|
E|----------------|----------------|----------------|-----------------|
|
e|-7--7-7-7-5-----|-5--5-5-5-------|----------------|-----------------|
B|------------8---|----------8-7---|-8--8-8-8-7-----|-7---------------|
G|----------------|----------------|------------9---|---9-7---9-7-----|
D|----------------|----------------|----------------|-------------9---|
A|----------------|----------------|----------------|-----------------|
E|----------------|----------------|----------------|-----------------|
|
e|----------------|----------------|----------------|-----------------|
B|----------------|----------------|----------------|-----------------|
G|----------------|----------------|----------------|-----------------|
D|-2--------------|-4--------------|-5--------------|-----------------|
A|-2--------------|-4--------------|-5--------------|-----------------|
E|-0--0-0-0-0-0-0-|-2--2-2-2-2-2-2-|-3--3-3-3-3-3-3-|-3-3-3-3-3-3-3-3-|


e|--7---7--7--7--5-----|--5---5--5--5--------|
B|------------------8--|---------------8--7--|
G|---------------------|---------------------|
D|---------------------|---------------------|
A|---------------------|---------------------|
E|---------------------|---------------------|
|
e|-15--15-15-15-14-12--|-14--14-14-14-12-10--|
B|---------------------|---------------------|
G|---------------------|---------------------|
D|---------------------|---------------------|
A|---------------------|---------------------|
E|---------------------|---------------------|
|
e|---------------------|---------------------|
B|---------------------|---------------------|
G|---------------------|---------------------|
D|---------------------|---------------------|
A|---------------------|------------------5--|
E|--3---3--3--3--2--0--|--2---2--2--2--0-----|


e|--------------------|--------------------|
B|--8---8--8--8--7----|--------------------|
G|-----------------9--|-9-11-9-7--7-9-7-5--|
D|--------------------|--------------------|
A|--------------------|--------------------|
E|--------------------|--------------------|
|
e|-12--12-12-12-10-8--|-8h10p8-7--7h8p7-5--|
B|--------------------|--------------------|
G|--------------------|--------------------|
D|--------------------|--------------------|
A|--------------------|--------------------|
E|--------------------|--------------------|
|
e|--------------------|--------------------|
B|--------------------|--------------------|
G|--------------------|--------------------|
D|--------------------|--------------------|
A|--7---7--7--7--5----|--------------------|
E|-----------------8--|-8h10p8-7--7h8p7-5--|


e|-------------------|----------------|
B|-------------------|-0-5-5-0-8-8-0--|
G|-5h7p5-4--4h5p4-2--|----------------|
D|-------------------|----------------|
A|-------------------|----------------|
E|-------------------|----------------|
|
e|-5h7p5-3--3h5p3-2--|-0-3-3-0-7-7-0--|
B|-------------------|----------------|
G|-------------------|----------------|
D|-------------------|----------------|
A|-------------------|----------------|
E|-------------------|----------------|
|
e|-------------------|----------------|
B|-------------------|----------------|
G|-------------------|----------------|
D|-------------------|----------------|
A|-------------------|----------------|
E|-5h7p5-3--3h5p3-2--|-0-3-3-0-7-7-0--|

e|---------------------------------|
B|---------------------------------|
G|---------------------------------|
D|-5---2---4---2---5---2---4---2---|
A|-3---2---2---2---3---2---2---2---|
E|-----0-------0-------0-------0/--|

e|---------------------------------------------------------------------------------------|
B|---------------------------------------------------------------------------------------|
G|---------------------------------------------------------------------------------------|
D|---------------------------------------------------------------------------------------|
A|---------------------------------------------------------------------------------------|
E|-0h5h8-0h5h8-0h5h8-0h5h8-0h5h8-0h5h8-0h5h8-0h5h8-0h5h7-0h5h7-0h5h7-0h5h7-0h4h7-0h4h7-0-| x4

e|-0h5h8-0h5h8-0h5h8-0h5h8-0h5h8-0h5h8-0h5h8-0h5h8-0h5h7-0h5h7-0h5h7-0h5h7-0h4h7-0h4h7-0-|
B|---------------------------------------------------------------------------------------|
G|---------------------------------------------------------------------------------------|
D|---------------------------------------------------------------------------------------|
A|---------------------------------------------------------------------------------------|
E|---------------------------------------------------------------------------------------| x2

e|--------------------7-7------|
B|------------5-8-8-5-----8----|
G|-----------------------------|
D|-5---2---4-------------------|
A|-3---2---2-------------------|
E|-----0-----------------------|
(below is the harmony part)
e|-----------------------------|
B|------------0-5-5-0-8-8-5----|
G|-----------------------------|
D|-----------------------------|
A|-----------------------------|
E|-----------------------------|

e|---|
B|---|
G|---|
D|-2-|
A|-2-|
E|-0-|

(drums)

---

e|--------------------------------------|
B|--------------------------------------|
G|-----------------------7--------------|
D|-4-2-----4-2-----2-4-7-5-7/9-7--------|
A|-2-0-5-2-2-0-5-2-0-2-5---5/7-5-7/9-7--|
E|-----3-0-----3-0---------------5/7-5--|

e|----------------------------------|
B|----------------------------------|
G|-----------------------7----------|
D|-4-2-----4-2-----2-4-7-5-----4----|
A|-2-0-5-2-2-0-5-2-0-2-5---2-5-2-5--|
E|-----3-0-----3-0---------0-3---3--| x2


[Solo]

e|---------------------------------------------------------------|
B|---------------------------------------------------------------|
G|----------------------------------------------7----------7-----|
D|-9///^(12)---10^(12)-10^(12)-10^(12)9p----7/9---9-9/-7-9---9-9-|
A|---------------------------------------9-----------------------|
E|---------------------------------------------------------------|

e|--------------------------------------|
B|-------------------------------8--10--|
G|-----7-----7-9^(11)-7---7-9-11--------|
D|-7/9---9-9------------9---------------|
A|--------------------------------------|
E|--------------------------------------|

e|------------------|-/17-15---14------------17-15---14------------|
B|-12---------------|-------------15-14---12------------15-14---12-|
G|------------------|----------------------------------------------|
D|------------------|----------------------------------------------|
A|------------------|----------------------------------------------|
E|------------------|----------------------------------------------|
|
e|------------------|----------------------------------------------|
B|------------------|----------------------------------------------|
G|------------------|----------------------------------------------|
D|------------------|----------------------------------------------|
A|------------------|----------------------------------------------|
E|--0-0-0-0-0-0-0-0-|---0----0-----0----0-----0----0-----0----0----|


e|-17-15---14------------17-15---14------------|---------------------------------------------|
B|------------15-14---12------------15-14---12-|-17-15---14------------17-15---14------------|
G|---------------------------------------------|------------16-14---12------------16-14---12-|
D|---------------------------------------------|---------------------------------------------|
A|---------------------------------------------|---------------------------------------------|
E|---------------------------------------------|---------------------------------------------|
|
e|---------------------------------------------|---------------------------------------------|
B|---------------------------------------------|---------------------------------------------|
G|---------------------------------------------|---------------------------------------------|
D|---------------------------------------------|---------------------------------------------|
A|---------------------------------------------|---------------------------------------------|
E|--0----0-----0----0-----0----0-----0----0----|--0----0-----0----0-----0----0-----0----0----|


e|-------------------------|------------------------------------|
B|-15-14----14-------------|------------------------------------|
G|-------16----16-14----14-|-14b16-(14)------14------------12---|
D|-------------------17----|--------------17----17-(17)-14------|
A|-------------------------|------------------------------------|
E|-------------------------|------------------------------------|
|
e|-------------------------|------------------------------------|
B|-------------------------|------------------------------------|
G|-------------------------|------------------------------------|
D|-------------------------|------------------------------------|
A|-------------------------|------------------------------------|
E|--0--0--0--0--0--0--0--0-|--0---------0-----0--0---0---0--0-0-|


e|------------------------|------------------|
B|------------------------|------------------|
G|-12----11----10----9----|-8----7---6---5---|
D|----14----13----12---11-|---10---9---8---7-|
A|------------------------|------------------|
E|------------------------|------------------|
|
e|------------------------|------------------|
B|------------------------|------------------|
G|------------------------|------------------|
D|------------------------|------------------|
A|------------------------|------------------|
E|--0--0--0--0--0--0-0--0-|-0--0-0-0-0-0-0-0-|


e|-----------------|--------------------|
B|-----------------|-8---8-10-----10-10-|
G|-7---7-9-----9-9-|---9----------------|
D|---9-------------|--------------------|
A|-----------------|--------------------|
E|-----------------|--------------------|
|
e|-----------------|--------------------|
B|-----------------|--------------------|
G|-----------------|--------------------|
D|-----------------|--------------------|
A|-0-0-0-0-0-0-0-0-|-0-0-0--0-0-0--0--0-|
E|-----------------|--------------------|


e|-8----8-10-----(10)---|---------------------------|
B|---10-----------------|-10-----(10)--11-----(11)--|
G|----------------------|-12b14--(12)--13b15--(13)--|
D|----------------------|---------------------------|
A|----------------------|---------------------------|
E|----------------------|---------------------------|
|
e|----------------------|---------------------------|
B|----------------------|---------------------------|
G|----------------------|--2------------3-----------|
D|----------------------|--2------------3-----------|
A|-0--0-0--0-0-0---0--0-|--0------------1-----------|
E|----------------------|---------------------------|


e||--14----------14----------|-14----------14----------|
B||o----12-10-12----12-10-12-|----12-10-12----12-10-12-|
G||--------------------------|-------------------------|
D||--------------------------|-------------------------|
A||o-------------------------|-------------------------|
E||--------------------------|-------------------------|
|
e||--------------------------|-------------------------|
B||o-------------------------|-------------------------|
G||---4----------------------|-------------------------|
D||---4----------------------|-------------------------|
A||o--2--2--2--2--2--2--2--2-|--2--2--2--2--2--2--2--2-|
E||--------------------------|-------------------------|


e|-15----------15----------|-15----------15-----------|
B|----13-12-13----13-12-13-|----13-12-13----13-12-13--|
G|-------------------------|--------------------------|
D|-------------------------|--------------------------|
A|-------------------------|--------------------------|
E|-------------------------|--------------------------|
|
e|-------------------------|--------------------------|
B|-------------------------|--------------------------|
G|-------------------------|--------------------------|
D|-------------------------|--------------------------|
A|-------------------------|--------------------------|
E|--3--3--3--3--3--3--3--3-|--3--3--3--3--3--3--3--3--|


e|-17----------17----------|-17----------17----------|
B|----15-13-15----15-13-15-|----15-13-15----15-13-15-|
G|-------------------------|-------------------------|
D|-------------------------|-------------------------|
A|-------------------------|-------------------------|
E|-------------------------|-------------------------|
|
e|-------------------------|-------------------------|
B|-------------------------|-------------------------|
G|-------------------------|-------------------------|
D|-------------------------|-------------------------|
A|-------------------------|-------------------------|
E|--5--5--5--5--5--5--5--5-|--5--5--5--5--5--5--5--5-|


e|-19----------17----------|-19----------17-----------||
B|----17-15-17----17-15-17-|----17-15-17----17-15-17-o||
G|-------------------------|--------------------------||
D|-------------------------|--------------------------||
A|-------------------------|-------------------------o||
E|-------------------------|--------------------------||
|
e|-------------------------|--------------------------||
B|-------------------------|-------------------------o||
G|-------------------------|--------------------------||
D|-------------------------|--------------------------||
A|-------------------------|-------------------------o||
E|--2--2--2--2--2--2--2--2-|--2--2--2--2--2--2--2--2--||


e|-24-22---21-23-21---20-22-20---19-21-19---18-|-20-18---17-19-17---16-18-16---15-17-15---14-|
B|---------------------------------------------|---------------------------------------------|
G|---------------------------------------------|---------------------------------------------|
D|---------------------------------------------|---------------------------------------------|
A|---------------------------------------------|---------------------------------------------|
E|---------------------------------------------|---------------------------------------------|
|
e|---------------------------------------------|---------------------------------------------|
B|---------------------------------------------|---------------------------------------------|
G|---------------------------------------------|---------------------------------------------|
D|---------------------------------------------|---------------------------------------------|
A|---------------------------------------------|---------------------------------------------|
E|--0----0-----0----0-----0----0-----0----0----|--0----0-----0----0-----0----0-----0----0----|


e|-16-14---13-15-13---12-14-12---11-13-12---11-|-10-8---7--------------------|
B|---------------------------------------------|----------10-8---7-----------|
G|---------------------------------------------|-------------------7---------|
D|---------------------------------------------|-----------------------------|
A|---------------------------------------------|-----------------------------|
E|---------------------------------------------|-----------------------------|
|
e|---------------------------------------------|-----------------------------|
B|---------------------------------------------|-----------------------------|
G|---------------------------------------------|-----------------------------|
D|---------------------------------------------|-----------------------------|
A|---------------------------------------------|-----------------------------|
E|--0----0-----0----0-----0----0-----0----0----|--0---0----0---0---0-0-0-0---|


e|---------------------|-------------------------|
B|---------10b12-------|-------------15b17-------|
G|-----7h9-------------|-------12h14-------------|
D|-7h9-----------------|-12h14-------------------|
A|---------------------|-------------------------|
E|---------------------|-------------------------|
|
e|---------------------|-------------------------|
B|---------------------|-------------------------|
G|---------------------|-------------------------|
D|---------------------|-------------------------|
A|---------------------|-------------------------|
E|-3-0-0-0--0----0-0-0-|--3--0--0--0--0----0-0-0-|


e|----------15-17---19---|-20---22---22b24-------|
B|-------17--------------|-----------------------|
G|----16-----------------|-----------------------|
D|-14--------------------|-----------------------|
A|-----------------------|-----------------------|
E|-----------------------|-----------------------|
|
e|-----------------------|-----------------------|
B|-----------------------|-----------------------|
G|-----------------------|-----------------------|
D|-----------------------|-----------------------|
A|-----------------------|-----------------------|
E|--3--0--0--0--0-0--0-0-|--3-0--0-0--0----0-0-0-|


[Ending]

e|---------------------------------------------------------------------------------------|
B|---------------------------------------------------------------------------------------|
G|---------------------------------------------------------------------------------------|
D|---------------------------------------------------------------------------------------|
A|---------------------------------------------------------------------------------------|
E|-0h5h8-0h5h8-0h5h8-0h5h8-0h5h8-0h5h8-0h5h8-0h5h8-0h5h7-0h5h7-0h5h7-0h5h7-0h4h7-0h4h7-0-| x4

e|-0h5h8-0h5h8-0h5h8-0h5h8-0h5h8-0h5h8-0h5h8-0h5h8-0h5h7-0h5h7-0h5h7-0h5h7-0h4h7-0h4h7-0-|
B|---------------------------------------------------------------------------------------|
G|---------------------------------------------------------------------------------------|
D|---------------------------------------------------------------------------------------|
A|---------------------------------------------------------------------------------------|
E|---------------------------------------------------------------------------------------| x2

e|------------------------------------------------------------------------|
B|------------------------------------------------------------------------|
G|------------------------------------------------------------------------|
D|-5-------4-------5-------4------------------5-------4-------------------|
A|-3---2---2---2---3---2---2------------------3---2---2-------------------|
E|-----0-------0-------0------3-2-0-0-3-2-0-0-----0------3-2-0-0-3-2-0-0--|

e|-------------------------------------------|
B|-------------------------------------------|
G|-------------------------------------------|
D|-5--4--10-9--------2--5--4--10-9--------2--|
A|-3--2--8--7--5--4--2--3--2--8--7--5--4--2--|
E|-------------3--2--0--------------3--2--0--|

e|----------------------|
B|----------------------|
G|----------------------|
D|-0---4----------------|
A|-0---4---5-4-3-5-4-3--|
E|-----2---5-4-3-5-4-3--| x2

e|----------------------|
B|----------------------|
G|----------------------|
D|-5--4--10-9--------2--|
A|-3--2--8--7--5--4--2--|
E|-------------3--2--0--|

e|-0h5h8-0h5h8-0h5h8-0h5h8-0h5h8-0h5h8-0h5h8-0h5h8-0h5h7-0h5h7-0h5h7-0h5h7-|
B|-------------------------------------------------------------------------|
G|-------------------------------------------------------------------------|
D|-------------------------------------------------------------------------|
A|-------------------------------------------------------------------------|
E|-------------------------------------------------------------------------|

e|------------------------------------------------------------------------------------|
B|------------------------------------------------------------------------------------|
G|------------------------------------------------------------------------------------|
D|------------------------------------------------------------------------------------|
A|--------------------------------------------------------------------------8-8-8-8-7-|
E|-0h5h8-0h5h8-0h5h8-0h5h8-0h5h8-0h5h8-0h5h8-0h5h8-0h5h7-0h5h7-0h5h7-0h5h7--8-8-8-8-7-|


*************************************

| /  slide up
| \  slide down
| h  hammer-on
| p  pull-off
| ~  vibrato
| +  harmonic
| x  Mute note

************************************
Suggest correction
comments
print report bad tab
18 comments total. Showing first comments.
+2 reply
marcelaguiar 609 wrote on August 22 2008, 12:50 pm

Not a bad tab. I'm just so excited this song came out today!
This is definately thier best song of their newer stuff. Something tells me that Death Magnetic will be way better than St. Anger.
It's much more like thier old stuff which is a relief.

Thanks for getting this tab out so soon even though it's not complete..

0 reply
marcelaguiar 609 wrote on August 22 2008, 01:00 pm

The first part sounds more like this...I hope it doesn't get messed up.


1st:-----------------------------------------|
2nd:-----------------------------------------|
3rd:-7--7/9-------------7--7/9---------------|
4th:--------7-7-7/9-5~----------7-7-7h9--7~--|
5th:-5--5/7-------------5--5/7---------------|
6th:--------5-5-5/7-3~----------5-5-5/7--5~--|

+4 reply
marcelaguiar 609 wrote on August 22 2008, 01:03 pm

Sorry I know that that correction above isn't correct, it's just showing that he plays octave notes not single notes.

guest
You may want to rate the tab now too:
select rating
Wanna post a correction for this tab? Suggest correction