Oops, an error
Loading. Please wait.

The Day That Never Comes Tab

version 5
67,367 views 39 this week
3 commentsread comments
1 2 3 4 5
x 7
add to favorites
launch autoscroll
font size
0
reset
how to read this tab
guitar tuner
Autoscroll
slow
fast
+/-
esc
set tempo
stop
Help us to improve Ultimate-Guitar.com Take our survey!
×
Author
Guitar 1   - Kirk Hammet    - Lead
Guitar 2  - Kirk Hammet    - Harmony/Lead2
Guitar 3 - James Hetfeild - Rhythm

[Intro]
(Tempo = 120 BPM)

(Guitar 1)
++Quads++ (Clean)
e|----12------12------12------12--|----14------14------12------12--|
B|--13--13--13--13--12--12--12--12|--15--15--15--15--13--13--13--13|
G|14======14======12======12======|12======12======14======14======|
D|--------------------------------|--------------------------------|
A|--------------------------------|--------------------------------|
E|--------------------------------|--------------------------------| (x2)
                                                                  
(Guitar 3)                                                       
e|--------------------------------|--------------------------------|
B|--------------------------------|--------------------------------|
G|--------------------------------|--------------------------------|
D|--------------------------------|--------------------------------|
A|--------------------------------|--------------------------------|
E|--------------------------------|--------------------------------|

[Main Riff]

(Guitar 1)
(Distorted)
e|--------------------------------|--------------------------------|
B|--------------------------------|--------------------------------|
G|7--/9---------------------------|7--/9---------------------------|
D|------7---7h9---5~~~~~~~~~~~~~~~|------7---7h9---7~~~~~~~~~~~~~~~|
A|--------------------------------|--------------------------------|
E|--------------------------------|--------------------------------| (x2)

(Guitar 3)
(Clean)                                               |
e|----12------12------12------12--|----14------14------12------12--|
B|--13--13--13--13--12--12--12--12|--15--15--15--15--13--13--13--13|
G|14------14------12------12------|12------12------14------14------|
D|--------------------------------|--------------------------------|
A|--------------------------------|--------------------------------|
E|--------------------------------|--------------------------------|

(Guitar 1)
e|--------------------------------|--------------------------------|
B|--------------------------------|--------------------------------|
G|7--/9---------------------------|--------------------------------|
D|------7---7h9---7---5/7-7/9-9/10|9---5/7-7/9-9/10-10p9-----5--/7-|
A|--------------------------------|--------------------------------|
E|--------------------------------|--------------------------------|
                                                                  
(Guitar 3)                                                       
e|----12------12------12------12--|----14------14------12------12--|
B|--13--13--13--13--12--12--12--12|--15--15--15--15--13--13--13--13|
G|14------14------12------12------|12------12------14------14------|
D|--------------------------------|--------------------------------|
A|--------------------------------|--------------------------------|
E|--------------------------------|--------------------------------|

(Guitar 1)
e|---------------------------------|-------------------------------|
B|---------------------------------|-----------------------------8-|
G|---------------------------------|-----------------7-9-10-9-10---|
D|7—5h7h9-7h9h10-9h10h12-10-9h10-9-|9-10-12-14-12-10---------------|
A|---------------------------------|-------------------------------|
E|---------------------------------|-------------------------------|
                                                                
(Guitar 3)                                                      
e|----12------12------12------12--|----14------14------------------|
B|--13--13--13--13--12--12--12--12|--15--15--15—-15----------------|
G|14------14------12------12------|12------12----------------------|
D|--------------------------------|--------------------------------|
A|--------------------------------|--------------------------------|
E|--------------------------------|--------------------------------|

[Verse/Intro]

(Guitar 1)
e|--------------------------------|--------------------------------|
B|10==============================|================----------------|
G|--------------------------------|--------------------------------|
D|--------------------------------|--------------------------------|
A|--------------------------------|--------------------------------|
E|--------------------------------|--------------------------------|
                                                                
(Guitar 3)                                                    
e|--------------------------------|--------------------------------|
B|----1---0-----------------------|----1---0-----1-----1---0-------|
G|----------2---0-------0-------0-|----------2---------------0---2-|
D|--2-----------------0-------0---|------------------2---2-----0---|
A|0-----0-----0-----2-------2-----|--2---0-----0---3---------------|
E|----------------3---------------|0-------------------------------|

(Guitar 1)
(Clean)
e|0---------------3---------------|0---------------0-0-----0-0-----|
B|1---------------0---------------|0---------------1-1-----1-1-----|
G|2---------------0---------------|0---------------0-0-----0-0-----|
D|2---------------0---------------|2---------------2-2-----2-2-----|
A|0---------------2---------------|2---------------3-3-----3-3-----|
E|----------------3---------------|0-------------------------------|
                                                              
(Guitar 3)                                                       
e|--------------------------------|--------------------------------|
B|----1---0-----------------------|----1---0-----1-----1---0-------|
G|----------2---0-------0-------0-|----------2---------------0---2-|
D|--2-----------------0-------0---|------------------2---2-----0---|
A|0-----0-----0-----2-------2-----|--2---0-----0---3---------------|
E|----------------3---------------|0-------------------------------|

[Verse 1]
(Guitar 1)
e|--------------------------------|--------------------------------|
B|----1---0-----------------------|----1---0-----1-----1---0-------|
G|----------2---0-------0-------0-|----------2---------------0---2-|(x9)
D|--2-----------------0-------0---|------------------2---2-----0---|
A|0-----0-----0-----2-------2-----|--2---0-----0---3---------------|
E|----------------3---------------|0-------------------------------|

(Guitar 1)
e|--------------------------------|--------------------------------|
B|----1---0-----------------------|----1---0-----1-----1---0-------|
G|----------2---0-------0-------0-|----------2---------------0---2-|
D|--2-----------------0-------0---|------------------2---2-----0---|
A|0-----0-----0-----2-------2-----|--2---0-----0---3---------------|
E|----------------3---------------|0-------------------------------|
                                                               
(Guitar 3)
(Distorted)                                           
e|--------------------------------|--------------------------------|
B|--------------------------------|--------------------------------|
G|--------------------------------|--------------------------------|
D|--------------------------------|------------------------2-2---2-|
A|--------------------------------|------------------------2-2---2-|
E|--------------------------------|------------------------0-0---0-|
                                                           . .   .
[Chorus]
(Tempo = 124 BPM)
(Guitar 1)
(Distorted) 
e|--------------------------------|-------0------------------------|
B|--------------------------------|-------0------------------------|
G|--------------------------------|----------------5-5-----5-5-----|
D|7---------------5---------------|2---------------5-5-----5-5-----|
A|7---------------5---------------|2---------------3-3-----3-3-----|
E|5-------5-8-5-3-3-------3-7-3-0-|0---------------3-3-----3-3-----| (x2)
                                                                 
(Guitar 3)                                                   
e|--------------------------------|--------------------------------|
B|--------------------------------|--------------------------------|
G|--------------------------------|--------------------------------|
D|--------------------------------|--------------------------------|
A|--------------------------------|--------------------------------|
E|--------------------------------|--------------------------------|

(Guitar 1)
e|--------------------------------|--------------------------------|
B|--------------------------------|--------------------------------|
G|5-------5-7-5-4-4-------4-5-4-2-|0------0--------5-5-----5-5-----|
D|--------------------------------|--------------------------------|
A|--------------------------------|--------------------------------|
E|--------------------------------|--------------------------------| (x2)
                                                                  
(Guitar 3)                                                       
e|--------------------------------|-------0------------------------|
B|--------------------------------|-------0------------------------|
G|--------------------------------|----------------5-5-----5-5-----|
D|7---------------5---------------|2---------------5-5-----5-5-----|
A|7---------------5---------------|2---------------3-3-----3-3-----|
E|5-------5-8-5-3-3-------3-7-3-0-|0---------------3-3-----3-3-----|


(Guitar 1)
++Triplets++
e|------------------------|------------------------|
B|------------------------|------------------------|
G|--------------------0-1-|------------------------|
D|------------0-2-3-3-----|2=======================|
A|------0-2-3-------------|------------------------|
E|0-1-4-------------------|------------------------|
                             
(Guitar 3)                                       
e|------------------------|------------------------|
B|------------------------|------------------------|
G|--------------------0-1-|1-======================|
D|------------------------|------------------------|
A|------------------------|------------------------|
E|------------------------|------------------------|

[Main Riff 2]
(Tempo = 120 BPM)
(Guitar 1)
++Quads++
e|--------------------------------|--------------------------------|
B|--------------------------------|--------------------------------|
G|7--/9---------------------------|7--/9---------------------------|
D|------7---7h9---5~~~~~~~~~~~~~~~|------7---7h9---7~~~~~~~~~~~~~~~|
A|--------------------------------|--------------------------------|
E|--------------------------------|--------------------------------| (x2)

(Guitar 3)
(Clean)                                              
e|----0-------0-------0-------0---|----2-------2-------0-------0---|
B|--1---1---1---1---0---0---0---0-|--3---3---3---3-—-1---1---1---1-|
G|2-------2-------0-------0-------|0-------0-------2-------2-------|
D|--------------------------------|--------------------------------|
A|--------------------------------|--------------------------------|
E|--------------------------------|--------------------------------|

[Verse 2]
(Guitar 1)
(Clean)
e|5====only=first=time============|--------------------------------|
B|----1---0-----------------------|----1---0-----1-----1---0-------|
G|----------2---0-------0-------0-|----------2---------------0---2-|(x7)
D|--2-----------------0-------0---|------------------2---2-----0---|
A|0-----0-----0-----2-------2-----|--2---0-----0---3---------------|
E|----------------3---------------|0-------------------------------|

(Guitar 1)
e|--------------------------------|--------------------------------|
B|----1---0-----------------------|----1---0-----1-----1---0-------|
G|----------2---0-------0-------0-|----------2---------------0---2-|
D|--2-----------------0-------0---|------------------2---2-----0---|
A|0-----0-----0-----2-------2-----|--2---0-----0---3---------------|
E|----------------3---------------|0-------------------------------|
                                                                  
(Guitar 3)
(Distorted)                                           
e|--------------------------------|--------------------------------|
B|--------------------------------|--------------------------------|
G|--------------------------------|--------------------------------|
D|--------------------------------|------------------------2-2---2-|
A|--------------------------------|------------------------2-2---2-|
E|--------------------------------|------------------------0-0---0-|
                                                           . .   .
[Chorus 2]
(Tempo = 126 BPM)
(Guitar 1)
(Distorted)
e|--------------------------------|-------0------------------------|
B|--------------------------------|-------0------------------------|
G|--------------------------------|----------------5-5-----5-5-----|
D|7---------------5---------------|2---------------5-5-----5-5-----|
A|7---------------5---------------|2---------------3-3-----3-3-----|
E|5-------5-8-5-3-3-------3-7-3-0-|0---------------3-3-----3-3-----| (x2)

(Guitar 3)                                                     
e|--------------------------------|--------------------------------|
B|--------------------------------|--------------------------------|
G|--------------------------------|--------------------------------|
D|--------------------------------|--------------------------------|
A|--------------------------------|--------------------------------|
E|--------------------------------|--------------------------------|

(Guitar 1)
e|--------------------------------|--------------------------------|
B|--------------------------------|--------------------------------|
G|5-------5-7-5-4-4-------4-5-4-2-|0------0--------5-5-----5-5-----|
D|--------------------------------|--------------------------------|
A|--------------------------------|--------------------------------|
E|--------------------------------|--------------------------------| (x2)

(Guitar 3)                                                       
e|--------------------------------|-------0------------------------|
B|--------------------------------|-------0------------------------|
G|--------------------------------|----------------5-5-----5-5-----|
D|7---------------5---------------|2---------------5-5-----5-5-----|
A|7---------------5---------------|2---------------3-3-----3-3-----|
E|5-------5-8-5-3-3-------3-7-3-0-|0---------------3-3-----3-3-----|

(Tempo = 129 BPM0
(Guitar 1)
++Triplets++
e|------------------------|------------------------|
B|------------------------|------------------------|
G|--------------------0-1-|------------------------|
D|------------0-2-3-3-----|2=======================|
A|------0-2-3-------------|------------------------|
E|0-1-4-------------------|------------------------|

(Guitar 1)
++Triplets++
e|------------------------|------------------------|
B|------------------------|------------------------|
G|------------------------|------------2-----------|
D|------------5-----------|------------2-----------|
A|------0-2-3-5-----------|------0-2-3-0-----------|
E|0-1-4-------3-----------|0-1-4-------------0-1-4-|

(Guitar 1)
++Triplets++
e|------------------------|------------------------|
B|------------------------|------------------------|
G|5-----------4-----------|--------------------0-1-|
D|5-----------4-----------|------------0-2-3-3-----|
A|3-----------2-----------|------0-2-3-------------|
E|------0-1-4-------------|0-1-4-------------------|

[Bridge]
(Tempo = 126 BPM)
(Guitar 1)
++Quads++
e|--------------------------------|--------------------------------|
B|--------------------------------|--------------------------------|
G|--------------------------------|--------------------------------| (x2)
D|10--------------2---------------|9---------------2---------------|
A|10--------------2---------------|9---------------2---------------|
E|8---------------0---------------|7---------------0---------------|

(Guitar 1)
e|--------------------------------|--------------------------------|
B|--------------------------------|--------------------------------|
G|--------------------------------|--------------------------------|
D|7-7---10--7-10--7-7---10--7-10--|7-7---10--7-10------------------|
A|7-7---10--7-10--7-7---10--7-10--|7-7---10--7-10--9-8-------------|
E|0-0-0-0---0-0---0-0-0-0---0-0---|0-0-0-0---0-0---7-6-0-0-0-0-0-33|
      .               .                .               . . . . . ..

(Guitar 1)
e|--------------------------------|--------------------------------|
B|--------------------------------|--------------------------------|
G|--------------------------------|--------------------------------| (x3)
D|------10--7-10--7-7---10--7-10--|7-7---10--7-10------------------|
A|------10--7-10--7-7---10--7-10--|7-7---10--7-10--9-8-------------|
E|20--0-0---0-0---0-0-0-0---0-0---|0-0-0-0---0-0---7-6-0-0-0-0-0-33|
  ... .               .                . 

(Guitar 1)
e|--------------------------------|--------------------------------|
B|--------------------------------|--------------------------------|
G|--------------------------------|--------------------------------|
D|4-4---7---4-7---4-4---7---4--7--|4-4---7---4-7-------------------|
A|4-4---7---4-7---4-4---7---4--7--|4-4---7---4-7-------------------|
E|2-2---5---2-5---2-2---5---2--5--|2-2---5---2-5-------------------|

(Guitar 1)
e|--------------------------------|--------------------------------|
B|--------------------------------|--------------------------------|
G|------------------7-7---7-----7-|7-7---7-------------------------|
D|--------------7---7-7---7-----7-|7-7---7-------------------------|
A|7-9-6-9-11--115-9-5-5---5-----5-|5-5---5-------------------------|
E|5-7-4-7-9-5-9---7---------------|--------------------------------|

(Guitar 1)
++Triplets++
e|------------------------|------------------------|
B|------------------------|------------------------|
G|--------------------0-1-|------------------------|
D|------------0-2-3-3-----|2=======================|
A|------0-2-3-------------|------------------------|
E|0-1-4-------------------|------------------------|

(Guitar 1)
++Triplets++
e|------------------------|
B|------------------------|
G|--------------------0-1-|
D|------------0-2-3-3-----|
A|------0-2-3-------------|
E|0-1-4-------------------|


[Metal Intro]
(Tempo = 130 BPM)
(Guitar 1)
++Triplets++
e|--------------------------------|--------------------------------|
B|--------------------------------|--------------------------------|
G|--------------------------------|--------------------------------|
D|2-------------------------------|--------------------------------|
A|2-------------------------------|--------------------------------|
E|--------------------------------|--------------------------------|

(Guitar 1)
e|--------------------------------|--------------------------------|
B|--------------------------------|--------------------------------|
G|--------------------------------|---------------Feed Back--------|
D|--------------------------------|-----------------Here-----------|
A|-xxxx---------------------------|--------------------------------|
E|-xxxx---------------------------|--------------------------------|

(Guitar 1)
e|------------------------|------------------------|
B|------------------------|------------------------|
G|------------------------|------------------------|
D|------------------------|------------------------|
A|------------------------|------------------------|
E|0000000000000-0-0-------|0000000000000-0-0-------|
  ............             ............

(Guitar 1)
e|------------------------|------------------------|
B|------------------------|------------------------|
G|------------------------|------------------------|
D|------------------------|------------------------|
A|------------------------|------------6~~~~~~~~~~~|
E|00000010---00000010-----|000000100000------------|
  ......     ......        ......  ....

(Guitar 1)
e|------------------------|------------------------|
B|------------------------|------------------------|
G|------------------------|------------------------|
D|------------------------|------------------------|
A|------------------------|------------------------|
E|0000000000000-0-0-------|0000000000000-0-0-------|
  ............             ............

(Guitar 1)
e|------------------------|------------------------|
B|------------------------|------------------------|
G|------------------------|------------------------|
D|------------------------|------------------------|
A|------------------------|------------6~~~~~~~~~~~|
E|00000010---00000010-----|000000100000------------|
  ......     ......        ......  ....

(Guitar 1)
e|------------------------|------------------------|
B|------------------------|------------------------|
G|------------------------|------------------------|
D|------------------------|------------------------|
A|------------------------|------------------------|
E|0000000000000-0-0-------|0000000000000-0-0-------|
  ............             ............

[Metal Solo A]
(Tempo = 132 BPM)
(Guitar 1) 
++Quads++
e|--------------------------------|--------------------------------|
B|8--—8-8-8-7-5---7---7-7-7-5-3---|--------------------------------|
G|--------------------------------|9---9-9-9-7-4---47-4-2---24-2-0-|
D|--------------------------------|--------------------------------|
A|--------------------------------|--------------------------------|
E|--------------------------------|--------------------------------|
                                                                
(Guitar 2)
(Distorted)                                            
e|--------------------------------|--------------------------------|
B|--------------------------------|--------------------------------|
G|9---9-9-9-7-4---7---7-7-7-4-2---|4---4-4-4-2-----24--------------|
D|--------------------------------|------------4------4-2---47-4-2-|
A|--------------------------------|--------------------------------|
E|--------------------------------|--------------------------------|

(Guitar 3)                                                      
e|--------------------------------|--------------------------------|
B|--------------------------------|--------------------------------|
G|--------------------------------|--------------------------------|
D|--------------------------------|--------------------------------|
A|--------------------------------|--------------------------------|
E|0-0-0-0-0-0-0-0-2-2-2-2-2-2-2-2-|3-3-3-3-3-3-3-3-3-3-3-3-3-3-3-3-|

(Guitar 1)
e|--------------------------------|--------------------------------|
B|8--—8-8-8-7-5---7---7-7-7-5-3---|--------------------------------|
G|--------------------------------|9---9-9-9-7-4---79---4-7--------|
D|--------------------------------|--------------------------------|
A|--------------------------------|--------------------------------|
E|--------------------------------|--------------------------------|
                                                                 
(Guitar 2)                                                       
e|--------------------------------|--------------------------------|
B|--------------------------------|--------------------------------|
G|9---9-9-9-7-4---7---7-7-7-4-2---|4---4-4-4-2-----79---4-7--------|
D|--------------------------------|------------4-------------------|
A|--------------------------------|--------------------------------|
E|--------------------------------|--------------------------------|

(Guitar 3)                                                      
e|--------------------------------|--------------------------------|
B|--------------------------------|--------------------------------|
G|--------------------------------|--------------------------------|
D|--------------------------------|--------------------------------|
A|3-3-3-3-3-3-3-3-2-2-2-2-2-2-2-2-|0-0-0-0-0-0-0-0-0-0-0-0-0-0-0-0-|
E|--------------------------------|--------------------------------|

(Guitar 1)
e|7---7-7-7-5-3---5---5-5-5-3-2---|--------------------------------|
B|---—----------------------------|8---8-8-8-7-5---57-5-3---35-3-2-|
G|--------------------------------|--------------------------------|
D|--------------------------------|--------------------------------|
A|--------------------------------|--------------------------------|
E|--------------------------------|--------------------------------|
                                                                  
(Guitar 2)                                                       
e|--------------------------------|--------------------------------|
B|8--—8-8-8-7-5---7---7-7-7-5-3---|--------------------------------|
G|--------------------------------|9---9-9-9-7-4---47-4-2---24-2-0-|
D|--------------------------------|--------------------------------|
A|--------------------------------|--------------------------------|
E|--------------------------------|--------------------------------|

(Guitar 3)                                                       
e|--------------------------------|--------------------------------|
B|--------------------------------|--------------------------------|
G|--------------------------------|--------------------------------|
D|--------------------------------|--------------------------------|
A|--------------------------------|--------------------------------|
E|0-0-0-0-0-0-0-0-2-2-2-2-2-2-2-2-|3-3-3-3-3-3-3-3-3-3-3-3-3-3-3-3-|

(Guitar 1)
e|15---15-15-15-14-12---14---14-14-14-12-10---|12---12-12-12-10-8---8-10-8-7---78-7-5---|
B|---—----------------------------------------|-----------------------------------------|
G|--------------------------------------------|-----------------------------------------|
D|--------------------------------------------|-----------------------------------------|
A|--------------------------------------------|-----------------------------------------|
E|--------------------------------------------|-----------------------------------------|
                                                                                
(Guitar 2)                                                       
e|7---7-7-7-5-3---5---5-5-5-3-2---|--------------------------------|
B|---—----------------------------|8---8-8-8-7-5---57-5-3---35-3-2-|
G|--------------------------------|--------------------------------|
D|--------------------------------|--------------------------------|
A|--------------------------------|--------------------------------|
E|--------------------------------|--------------------------------|
                                                                
(Guitar 3)                                                     
e|--------------------------------|--------------------------------|
B|--------------------------------|--------------------------------|
G|--------------------------------|--------------------------------|
D|5---5-5-5-4-2-------------------|--------------------------------|
A|----------------9---9-9-9-7-5---|7---7-7-7-5-3---35-3-2---23-2-0-|
E|--------------------------------|--------------------------------|

(Guitar 1)
e|5-7-5-3---3-5-3-2-0-3-3-0-7-7-3-|
B|--------------------------------|
G|--------------------------------|
D|--------------------------------|
A|--------------------------------|
E|--------------------------------|
                               
(Guitar 2)                       
e|--------------------------------|
B|------------------0-5-5-0-8-8-5-|
G|6-7-6-4---4-6-4-2---------------|
D|--------------------------------|
A|--------------------------------|
E|--------------------------------|

(Guitar 3)                 
e|--------------------------------|
B|--------------------------------|
G|--------------------------------|
D|--------------------------------|
A|--------------------------------|
E|5-7-5-3---3-5-3-2-0-3-3-0-7-7-3-|

[Metal Chorus]
(Guitar 1)
++Quads++
e|--------------------------------|--------------------------------|
B|--------------------------------|--------------------------------|
G|--------------------------------|--------------------------------|(x2)
D|10--------------2---------------|9---------------2---------------|
A|10--------------2---------------|9---------------2---------------|
E|8---------------0---------------|7---------------0---------------|

[Metal Verse]

(Guitar 1)
e|-----------------------------------------------|------------------------------------------------|
B|-----------------------------------------------|------------------------------------------------|
G|-----------------------------------------------|------------------------------------------------|
D|-----------------------------------------------|------------------------------------------------|
A|-----------------------------------------------|------------------------------------------------|
E|0-5-8-0-5-8-0-5-8-0-5-8-0-5-8-0-5-8-0-5-8-0-5-8|0-5-7-0-5-7-0-5-7-0-5-7-0-4-7-0-4-7-0-----------| (x2)

(Guitar 3)                                                                                   
e|-----------------------------------------------|------------------------------------------------|
B|-----------------------------------------------|------------------------------------------------|
G|-----------------------------------------------|------------------------------------------------|
D|-----------------------------------------------|------------------------------------------------|
A|-----------------------------------------------|------------------------------------------------|
E|-----------------------------------------------|------------------------------------------------|

(Guitar 1)
e|0-5-8-0-5-8-0-5-8-0-5-8-0-5-8-0-5-8-0-5-8-0-5-8|0-5-7-0-5-7-0-5-7-0-5-7-0-4-7-0-4-7-0-----------|
B|-----------------------------------------------|------------------------------------------------|
G|-----------------------------------------------|------------------------------------------------|
D|-----------------------------------------------|------------------------------------------------|
A|-----------------------------------------------|------------------------------------------------|
E|-----------------------------------------------|------------------------------------------------| (x2)

(Guitar 3)                                                                                  
e|-----------------------------------------------|------------------------------------------------|
B|-----------------------------------------------|------------------------------------------------|
G|-----------------------------------------------|------------------------------------------------|
D|-----------------------------------------------|------------------------------------------------|
A|-----------------------------------------------|------------------------------------------------|
E|0-5-8-0-5-8-0-5-8-0-5-8-0-5-8-0-5-8-0-5-8-0-5-8|0-5-7-0-5-7-0-5-7-0-5-7-0-4-7-0-4-7-0-----------|

[Metal Chorus 2]

(Guitar 1)
e|--------------------------------|----------------0-3-3-0-7-7-3-3-|
B|--------------------------------|--------------------------------|
G|--------------------------------|--------------------------------| (x2)
D|10--------------2---------------|9-------------------------------|
A|10--------------2---------------|9-------------------------------|
E|8---------------0---------------|7-------------------------------|
                                                                  
(Guitar 2)                                                        
e|--------------------------------|--------------------------------|
B|--------------------------------|----------------0-5-5-0-8-8-5-5-|
G|--------------------------------|--------------------------------| (x2)
D|--------------------------------|--------------------------------|
A|--------------------------------|--------------------------------|
E|--------------------------------|--------------------------------|

(Guitar 1)
e|--------------------------------|12==============================|
B|--------------------------------|^^Gradually Gets Louder---------|
G|--------------------------------|--------------------------------|
D|2-------------------------------|--------------------------------|
A|2-------------------------------|--------------------------------|
E|0-------------------------------|--------------------------------|

[Metal Bridge]
(Guitar 1)
e|--------------------------------|--------------------------------|
B|--------------------------------|--------------------------------|
G|----------------------7---------|----------------------7---------| (x2)
D|----------------2-4-7-5-9-7-4-2-|----------------2-4-7-5---------|
A|9-7-5-2-9-7-5-2-0-2-5---7-5-2-0-|9-7-5-2-9-7-5-2-0-2-5---2-5-9-5-|
E|7-5-3-0-7-5-3-0-----------------|7-5-3-0-7-5-3-0---------0-3-7-3-|
    . . .   . . .                    . . .   . . .

[Solo]
(All Guitar 1)
(Distorted/Wah)
e|-----------------------------------------------|-----------------------------------------5-7--12|
B|-----------------------------------------------|-------------------------------------7-8--------|
G|4-4-4-4-4-4-4-4-4-4-4-4-4-4-4-4-7~~~7~~~-------|----7-----------7------------7---7-9------------|
D|------^^-Gradually Bend-^^--------------7h9-7h9|7h9---9-----7h9---9------7h9---9----------------|
A|-----------------------------------------------|------------------------------------------------|
E|-----------------------------------------------|------------------------------------------------|

e|14-17-15-14----------17-15-14----------17-15-14|---------17-15-14-------------------------------|
B|------------17-15-14----------17-15-14---------|17-15-14----------17-15-14-17-15-14-------------|
G|-----------------------------------------------|------------------------------------16-14-13----|
D|-----------------------------------------------|------------------------------------------------|
A|-----------------------------------------------|------------------------------------------------|
E|-----------------------------------------------|------------------------------------------------|

e|-----------------------------------------------|------------------------------------------------|
B|17-15-14----------14-15-14-12-------------14-15|14-12-------------12----10-----9-----8----7----6|
G|---------16-14-13-------------14-13-12-11------|------14-13-12-13----12----11----10----9----8---|
D|-----------------------------------------------|------------------------------------------------|
A|-----------------------------------------------|------------------------------------------------|
E|-----------------------------------------------|------------------------------------------------|

e|-----------------------------------------------|5-----------------------6-----------------------|
B|------------------------------10-10-13-10-13-15|8^----------------------9^----------------------|
G|---------------9-9-12-9-12-14------------------|------------------------------------------------|
D|9-9-12-9-12-14---------------------------------|------------------------------------------------|
A|-----------------------------------------------|------------------------------------------------|
E|-----------------------------------------------|------------------------------------------------|

e|14----------14----------14----------14---------|15----------15----------15----------15----------|
B|---12-10-12----12-10-12----12-10-12----12-10-12|---13-12-13----13-12-13----13-12-13----13-12-13-|
G|-----------------------------------------------|------------------------------------------------|
D|-----------------------------------------------|------------------------------------------------|
A|-----------------------------------------------|------------------------------------------------|
E|-----------------------------------------------|------------------------------------------------|

e|17----------17----------17----------17---------|19----------17----------19----------17----------|
B|---15-13-15----15-13-15----15-13-15----15-13-15|---17-15-17----17-15-17----17-15-17----17-15-17-|
G|-----------------------------------------------|------------------------------------------------|
D|-----------------------------------------------|------------------------------------------------|
A|-----------------------------------------------|------------------------------------------------|
E|-----------------------------------------------|------------------------------------------------|

e|14----------14----------14----------14---------|15----------15----------15----------15----------|
B|---12-10-12----12-10-12----12-10-12----12-10-12|---13-12-13----13-12-13----13-12-13----13-12-13-|
G|-----------------------------------------------|------------------------------------------------|
D|-----------------------------------------------|------------------------------------------------|
A|-----------------------------------------------|------------------------------------------------|
E|-----------------------------------------------|------------------------------------------------|

e|17----------17----------17----------17---------|19----------17----------19----------17----------|
B|---15-13-15----15-13-15----15-13-15----15-13-15|---17-15-17----17-15-17----17-15-17----17-15-17-|
G|-----------------------------------------------|------------------------------------------------|
D|-----------------------------------------------|------------------------------------------------|
A|-----------------------------------------------|------------------------------------------------|
E|-----------------------------------------------|------------------------------------------------|

(REALLY REALLY FAST)
e|24-23-22-23-22-21-22-21-20-21-20-19-20-19-18-19|18-17-18-17-16-17-16-15-16-15-14-15-14-13-14-13-|
B|-----------------------------------------------|------------------------------------------------|
G|-----------------------------------------------|------------------------------------------------|
D|-----------------------------------------------|------------------------------------------------|
A|-----------------------------------------------|------------------------------------------------|
E|-----------------------------------------------|------------------------------------------------|

e|----------------------------------------15--17-|19---20----22------24===========================|
B|-----10-10/12--------12-15/17-----15-17--------|------------------------------------------------|
G|---9--------------12-----------16--------------|------------------------------------------------|
D|11-------------14------------------------------|------------------------------------------------|
A|-----------------------------------------------|------------------------------------------------|
E|-----------------------------------------------|------------------------------------------------|

(Here is the Rhythm Part For The Solo)
e|--------------------------------|--------------------------------|
B|--------------------------------|--------------------------------|
G|--------------------------------|--------------------------------|
D|--------------------------------|--------------------------------|
A|2-2-2-2-2-2-2-2-2-2-2-2-2-2-2-2-|2-2-2-2-2-2-2-2-2-2-2-2-2-2-2-2-|
E|--------------------------------|--------------------------------|

e|--------------------------------|--------------------------------|
B|--------------------------------|--------------------------------|
G|--------------------------------|--------------------------------|
D|--------------------------------|--------------------------------|
A|2-2-2-2-2-2-2-2-2-2-2-2-2-2-2-2-|2-2-2-2-2-2-2-2-2-2-2-2-2-2-2-2-|
E|--------------------------------|--------------------------------|

e|--------------------------------|--------------------------------|
B|--------------------------------|--------------------------------|
G|--------------------------------|--------------------------------|
D|--------------------------------|--------------------------------|
A|--------------------------------|--------------------------------|
E|0-0-0-0-0-0-0-0-0-0-0-0-0-0-0-0-|0-0-0-0-0-0-0-0-0-0-0-0-0-0-0-0-|

e|--------------------------------|--------------------------------|
B|--------------------------------|--------------------------------|
G|--------------------------------|--------------------------------|
D|--------------------------------|--------------------------------|
A|--------------------------------|--------------------------------|
E|0-0-0-0-0-0-0-0-0-0-0-0-0-0-0-0-|0-0-0-0-0-0-0-0-0-0-0-0-0-0-0-0-|

e|--------------------------------|--------------------------------|
B|--------------------------------|--------------------------------|
G|--------------------------------|--------------------------------|
D|--------------------------------|------------------------7---8---|
A|--------------------------------|------------------------7---8---|
E|5-5-5-5-5-5-5-5-5-5-5-5-5-5-5-5-|5-5-5-5-5-5-5-5-5-5-5-5-5---6---|

e|--------------------------------|--------------------------------|
B|--------------------------------|--------------------------------|
G|--------------------------------|--------------------------------|
D|--------------------------------|--------------------------------|
A|--------------------------------|--------------------------------|
E|7-7-7-7-7-7-7-7-7-7-7-7-7-7-7-7-|3-3-3-3-3-3-3-3-3-3-3-3-3-3-3-3-|

e|--------------------------------|--------------------------------|
B|--------------------------------|--------------------------------|
G|--------------------------------|--------------------------------|
D|--------------------------------|--------------------------------|
A|--------------------------------|--------------------------------|
E|5-5-5-5-5-5-5-5-5-5-5-5-5-5-5-5-|2-2-2-2-2-2-2-2-2-2-2-2-2-2-2-2-|

e|--------------------------------|--------------------------------|
B|--------------------------------|--------------------------------|
G|--------------------------------|--------------------------------|
D|--------------------------------|--------------------------------|
A|--------------------------------|--------------------------------|
E|7-7-7-7-7-7-7-7-7-7-7-7-7-7-7-7-|3-3-3-3-3-3-3-3-3-3-3-3-3-3-3-3-|

e|--------------------------------|--------------------------------|
B|--------------------------------|--------------------------------|
G|--------------------------------|--------------------------------|
D|--------------------------------|--------------------------------|
A|--------------------------------|--------------------------------|
E|5-5-5-5-5-5-5-5-5-5-5-5-5-5-5-5-|2-2-2-2-2-2-2-2-2-2-2-2-2-2-2-2-|

e|--------------------------------|--------------------------------|
B|--------------------------------|--------------------------------|
G|--------------------------------|--------------------------------|
D|--------------------------------|--------------------------------|
A|--------------------------------|--------------------------------|
E|0-0-0-0-0-0-0-0-0-0-0-0-0-0-0-0-|0-0-0-0-0-0-0-0-0-0-0-0-0-0-0-0-|

e|--------------------------------|--------------------------------|
B|--------------------------------|--------------------------------|
G|--------------------------------|--------------------------------|
D|--------------------------------|--------------------------------|
A|--------------------------------|--------------------------------|
E|0-0-0-0-0-0-0-0-0-0-0-0-0-0-0-0-|0-0-0-0-0-0-0-0-0-0-0-0-0-0-0-0-|

[Metal Verse 2]

(Guitar 1)
(Distorted) 
e|-----------------------------------------------|------------------------------------------------|
B|-----------------------------------------------|------------------------------------------------|
G|-----------------------------------------------|------------------------------------------------|
D|-----------------------------------------------|------------------------------------------------|
A|-----------------------------------------------|------------------------------------------------|
E|0-5-8-0-5-8-0-5-8-0-5-8-0-5-8-0-5-8-0-5-8-0-5-8|0-5-7-0-5-7-0-5-7-0-5-7-0-4-7-0-4-7-0-----------| (x2)

(Guitar 3)                                                                                      
e|-----------------------------------------------|------------------------------------------------|
B|-----------------------------------------------|------------------------------------------------|
G|-----------------------------------------------|------------------------------------------------|
D|-----------------------------------------------|------------------------------------------------|
A|-----------------------------------------------|------------------------------------------------|
E|0-0-0-0-0-0-0-0-0-0-0-0-0-0-0-0-0-0-0-0-0-0-0-0|0-0-0-0-0-0-0-0-0-0-0-0-0-0-0-0-0-0-0-0-0-0-0-0-|
  . . . . . . . . . . . . . . . . . . . . . . . . . . . . . . . . . . . . . . . . . . . . . . . .

(Guitar 1)
e|0-5-8-0-5-8-0-5-8-0-5-8-0-5-8-0-5-8-0-5-8-0-5-8|0-5-7-0-5-7-0-5-7-0-5-7-0-4-7-0-4-7-0-----------|
B|-----------------------------------------------|------------------------------------------------|
G|-----------------------------------------------|------------------------------------------------|
D|-----------------------------------------------|------------------------------------------------|
A|-----------------------------------------------|------------------------------------------------|
E|-----------------------------------------------|------------------------------------------------| (x2)

(Guitar 3)                                                                                     
e|-----------------------------------------------|------------------------------------------------|
B|-----------------------------------------------|------------------------------------------------|
G|-----------------------------------------------|------------------------------------------------|
D|-----------------------------------------------|------------------------------------------------|
A|-----------------------------------------------|------------------------------------------------|
E|0-5-8-0-5-8-0-5-8-0-5-8-0-5-8-0-5-8-0-5-8-0-5-8|0-5-7-0-5-7-0-5-7-0-5-7-0-4-7-0-4-7-0-----------|

[Metal Chorus 3]
(Guitar 1)
e|--------------------------------|--------------------------------|
B|--------------------------------|--------------------------------|
G|--------------------------------|--------------------------------|
D|10--------------2---------------|9---------------2---------------|
A|10--------------2---------------|9---------------2---------------|
E|8---------------0---------------|7---------------0---------------|

(Guitar 1)
e|--------------------------------|--------------------------------|
B|--------------------------------|--------------------------------|
G|--------------------------------|--------------------------------| (x2)
D|10--------------2---------------|9-------------------------------|
A|10--------------2---------------|9-------------------------------|
E|8---------------0---------------|7---------------3-2-1-0-3-2-1-0-|

(Guitar 1)
e|--------------------------------|--------------------------------|
B|--------------------------------|--------------------------------|
G|--------------------------------|--------------------------------|
D|--------10--9-------------------|--------10--9-------------------|
A|10--9---8---7---5---4---2-------|10--9---8---7---5---4---2-------|
E|8---7-----------3---2---0-------|8---7-----------3---2---0-------|

[Metal Outro]
(Guitar 1)
e|--------------------------------|------|
B|--------------------------------|------|
G|7-------------------------------|------| (x2)
D|7---------------4---------------|------|
A|5---------------4---------------|5-4-3-|
E|5---------------2---------------|5-4-3-|

(Guitar 1)
e|--------------------------------|
B|--------------------------------|
G|--------------------------------|
D|--------10--9-------------------|
A|10--9---8---7---5---4---2-------|
E|8---7-----------3---2---0-------|

(Tempo = 117 BPM)
(Guitar 1)
e|0-5-8-0-5-8-0-5-8-0-5-8-0-5-8-0-5-8-0-5-8-0-5-8|0-5-7-0-5-7-0-5-7-0-5-7-------------------------|
B|-----------------------------------------------|------------------------------------------------|
G|-----------------------------------------------|------------------------------------------------|
D|-----------------------------------------------|------------------------------------------------|
A|-----------------------------------------------|------------------------8-8-8-8-8-8-7-----------|
E|-----------------------------------------------|------------------------8-8-8-8-8-8-7-----------|
                                                                                                
(Guitar 3)                                                                                     
e|-----------------------------------------------|------------------------------------------------|
B|-----------------------------------------------|------------------------------------------------|
G|-----------------------------------------------|------------------------------------------------|
D|-----------------------------------------------|------------------------------------------------|
A|-----------------------------------------------|------------------------3-3-3-3-3-3-2-----------|
E|0-5-8-0-5-8-0-5-8-0-5-8-0-5-8-0-5-8-0-5-8-0-5-8|0-5-7-0-5-7-0-5-7-0-5-7-1-1-1-1-1-1-0-----------|


************************************

| /   Slide up
| h   Hammer-on
| ~   Vibrato
| p   Pull-off
| PM  Palm mute
| .   Staccato
| x   Dead note

************************************
Suggest correction
comments
print report bad tab
3 comments total.
-1 reply
metallica45B 10 Jun 25, 2009 06:04 PM

haha i rated one star.

0 reply
lDGlHax0r 103 Jul 01, 2009 07:42 PM

Why rate, this tab 1 star, it could at least by no leass than 3 stars.
Now my tab has a low rating because some random guy spam rated my tab. Did you even read the tab?

+1 reply
Janska 10 Jul 08, 2009 11:19 AM

The best tab on here

guest
You may want to rate the tab now too:
select rating
Wanna post a correction for this tab? Suggest correction