Oops, an error
Loading. Please wait.

The Ecstasy Of Gold Bass Tab

version 1
version 1

Intro

Interactive

3,938 views 18 this week
no commentswrite comment
1 2 3 4 5
please rate
add to favorites
launch autoscroll
font size
0
reset
guitar tuner
Autoscroll
slow
fast
+/-
esc
set tempo
stop
Help us to improve Ultimate-Guitar.com Take our survey!
×
Author
Difficulty
novice
|-5-----12------15-----12-----10-12-10-10-12-10----7-|
|-------------------------------------10-------10----|
|----------------------------------------------------|
|----------------------------------------------------|



|-5-----12------19-----15-----15-17-15-15-17-15----12-|
|-------------------------------------15-------15-----|
|-----------------------------------------------------|
|-----------------------------------------------------|


Suggest correction
Give kudos to tab author, rate the tab!
1 2 3 4 5
comments
print report bad tab
guest
You may want to rate the tab now too:
select rating
Please do not post tabs as comments. Select "correction" instead!