Oops, an error
Loading. Please wait.

The Ecstasy Of Gold Tab

version 1
version 1

Whole song

Interactive

174,404 views 156 this week
15 commentsread comments
1 2 3 4 5
excellent!
x 55
add to favorites
launch autoscroll
font size
0
reset
how to read this tab
guitar tuner
Tab Pro tools
  • play this tab
  • loop segment
  • change instrument
  • show fretboard
  • metronome
Autoscroll
slow
fast
+/-
esc
set tempo
stop
Contributor
-------------------------------------------------------------------------------
                             THE ECSTASY OF GOLD - METALLICA
-------------------------------------------------------------------------------
Tabbed by:James Sutton
Email:jas11790@yahoo.com

Tuning:pretty sure its standard

e|--------------------------------------------------------------------------|
B|--9--------------------------------7--------------------------------------|
G|----8-let ring-----------------------8-let ring---------------------------|
D|--------------------------------------------------------------------------|
A|--------------------------------------------------------------------------|
E|--------------------------------------------------------------------------|

e|--------------------------------------------------------------------------|
B|-------------9-------9-9--9h11-9 let ring---------------------------------|
G|--6h8-6--8-6-----8-6------------------------------------------------------|
D|-------6------------------------------------------------------------------|
A|--------------------------------------------------------------------------|
E|--------------------------------------------------------------------------|

e|-----------------------------------6--------------------------------------|
B|--9----------------------------------7-let ring---------------------------|
G|----8-let ring------------------------------------------------------------|
D|--------------------------------------------------------------------------|
A|--------------------------------------------------------------------------|
E|--------------------------------------------------------------------------|

e|--------------------------------------------------------------------------|
B|--4h7p4-----------7-------------------------------------------------------|
G|--------6-4h6-6s8---4--6-6s8 let ring-------------------------------------|
D|--------------------------------------------------------------------------|
A|--------------------------------------------------------------------------|
E|--------------------------------------------------------------------------|

    this is where the wah wah kicks in - (0:52)

e|--------------------------------------------------------------------------|
B|-----------------------------------7--------------------------------------|
G|----8~~~~~~~~~~----------------------8~~~~~~~~~~--------------------------|
D|--6-----------------------------------------------------------------------|
A|--------------------------------------------------------------------------|
E|--------------------------------------------------------------------------|

e|--------------------------------------------------------------------------|
B|--------------------------------------------------------------------------|
G|--6h8p6---8-6---8-6-------------------------------------------------------|
D|--------6-----6-----6-6--8-6~~~~~~~~~~------------------------------------|
A|--------------------------------------------------------------------------|
E|--------------------------------------------------------------------------|

e|-----------------------------------6--------------------------------------|
B|-------------------------------------7~~~~~~~~~~--------------------------|
G|----8~~~~~~~~~~-----------------------------------------------------------|
D|--6-----------------------------------------------------------------------|
A|--------------------------------------------------------------------------|
E|--------------------------------------------------------------------------|

e|--------------------------------------------------------------------------|
B|--4h7p4-----------7-------------------------------------------------------|
G|--------6-4h6-6s8---4--6-6s8~~~~~~~~~~------------------------------------|
D|--------------------------------------------------------------------------|
A|--------------------------------------------------------------------------|
E|--------------------------------------------------------------------------|

e|--------------------------------------------------------------------------|
B|-----------------------------------7--------------------------------------|
G|-----8~~~~~~~~~~---------------------8~~~~~~~~~~--------------------------|
D|--6-----------------------------------------------------------------------|
A|--------------------------------------------------------------------------|
E|--------------------------------------------------------------------------|

e|--------------------------------------------------------------------------|
B|--------------------------------------9-------7---------------------------|
G|--6-8-6---8-6-----------------9-------------------------------------------|
D|--------6-----6-------9---------------------------------------------------|
A|--------------------------------------------------------------------------|
E|--------------------------------------------------------------------------|

e|------------------6--6s9------7-------9b11-9p7----------------------------|
B|----------8------------------------------------9--------------------------|
G|--8----------------------------------------------8~~~~~~~~~~--------------|
D|--------------------------------------------------------------------------|
A|--------------------------------------------------------------------------|
E|--------------------------------------------------------------------------|

e|--------------------------------------------------------------------------|
B|--7-----------------------------------------------------------------------|
G|----8~~~~~~~~~~---------------6h8p6---8-6---8-6---------------------------|
D|------------------------------------6-----6-----6-6--8-6~~~~~~~~~~--------|
A|--------------------------------------------------------------------------|
E|--------------------------------------------------------------------------|

e|--------------------------------------------------------------------------|
B|-----------------------------------7--------------------------------------|
G|-----8~~~~~~~~~~---------------------8~~~~~~~~~~--------------------------|
D|--6-----------------------------------------------------------------------|
A|--------------------------------------------------------------------------|
E|--------------------------------------------------------------------------|

E|---------------------------------------------7-------------------------------|
B|------------------------------9~~~~~~~~~~----------------9--7--9-9-9-9-9-----|
G|--6-----------------6--------------------------------------------------------|
D|-----------6-----------------------------------------------------------------|
A|-----------------------------------------------------------------------------|
E|-----------------------------------------------------------------------------|

e|--7------------------------------------------------------------------------|
B|--------------9-7-----9s1--------------------------------------------------|
G|---------------------------------------------------------------------------|
D|---------------------------------------------------------------------------|
A|---------------------------------------------------------------------------|
E|---------------------------------------------------------------------------|
            now do the pick slides

   (1:53)
e|---------------------------------------------------------------------------|
B|----------------------------------7-10p7---7-7h9------------------9~~~-----|
G|-----8~~~~~~~~~~-------------------------9-------8~~~----------8-----------|
D|--6---------------------------------------------------------6--------------|
A|---------------------------------------------------------------------------|
E|---------------------------------------------------------------------------|

e|----------7------7-7---7-7---------------------------6b--------------------|
B|-------------9-7-----9---------------------7h10p7------9p7-----------------|
G|--------------------------------8~~~~~~~~~--------9--------8~~~------------|
D|----------------------------s6---------------------------------------------|
A|--x//----------------------------------------------------------------------|
E|--x//----------------------------------------------------------------------|

e|--------------7--------9---9---9---7-------------7---7---7-----------------|
B|------9-----------9~~~---7---7---7---9---7---9-----9---9---9---------------|
G|--8------8-----------------------------------------------------------------|
D|---------------------------------------------------------------------------|
A|---------------------------------------------------------------------------|
E|---------------------------------------------------------------------------|

e|---------------------------------------------------------------------------|
B|------------------------------------------9~~~----------(12p11p9-x4)-------|
G|-----8~~~~~~~~~~----6~~~8p6-6~~~-------8-------9-9-9-9---------------------|
D|-s6-----------------6~~~----6~~~----6--------------------------------------|
A|---------------------------------------------------------------------------|
E|---------------------------------------------------------------------------|

e|----------------13b\---------------------------------------------------------|
B|--(13p12p10-x2)----------------------------------------------9----7~~~-------|
G|----------------------8-6---8-6---8--6-----8-6~---------9--------------------|
D|--------------------6-----6-----6------6~------8-6~~-9-----------------------|
A|-----------------------------------------------------------------------------|
E|-----------------------------------------------------------------------------|

e|--------6--9--7--11--9--15\--------------------|-15--------15-----|--------|
B|-----8-----------------------/12t------15t-----|---18p17p15----x4-|--------|
G|--8------------------------------------------------------------------------|
D|---------------------------------------------------------------------------|
A|---------------------------------------------------------------------------|
E|---------------------------------------------------------------------------|

e|--------15-----------------------------------------------------------------|
B|--17p15-----x4-----12-------12-------12-------13---------------------------|
G|----------------------13-11----13-11----13-11----11------------------------|
D|---------------------------------------------------------------------------|
A|---------------------------------------------------------------------------|
E|---------------------------------------------------------------------------|

e|--19-16--16----------------19------16-16-----------------------------------|
B|-------19----x a lot----------19-19------16-16-19-19-----------------------|
G|-----------------------------------------------------16-16-15-16-----------|
D|---------------------------------------------------------------------------|
A|---------------------------------------------------------------------------|
E|---------------------------------------------------------------------------|

e|---------------------------------------------------------------------------|
B|--3------------------------------------------------------------------------|
G|--5b----5p3-5-5-5p3--------------------------------------------------------|
D|--------------------5-3-5~~~---7b10-------tr-5-(7)-------------------------|
A|---------------------------------------------------------------------------|
E|---------------------------------------------------------------------------|

e|----7-10-9-7------10-9-7-----7-10-9-7-------10-9-7-----------------8-------|
B|--9---------9-7-9----------9----------9-7-9--------------7----10-----------|
G|----------------------------------------------------8----------------------|
D|---------------------------------------------------------------------------|
A|---------------------------------------------------------------------------|
E|---------------------------------------------------------------------------|

e|------------12----11-------15----------15------17------18/-----------------|
B|--9----12--------------------------12------14------15----------------------|
G|---------------------------------------------------------------------------|
D|---------------------------------------------------------------------------|
A|---------------------------------------------------------------------------|
E|---------------------------------------------------------------------------|


   alright, there ya go, hope you guys enjoy it and this is
my first tab so if you guys can
make any suggestions please do and rate it, i'd appreciate it.

| b  bend
| tr trill
| s  slide to
| /  slide up
| \  slide down
| h  hammer-on
| p  pull-off
| ~  vibrato
| t  tremelo pick
| x  pick slide or finger slide
comments
print report bad tab
15 comments total. Showing first comments.
+1 reply
PLOP wrote on May 18 2007, 04:02 pm

ok so far...try and finish it, especially ebfore you submit it

0 reply
Spanky Dude wrote on May 18 2007, 06:35 pm

A very good tab, could you please finish it? im quite interested in learning this song, thanks. ****

+1 reply
Ice7771 wrote on July 18 2007, 03:48 am

It's not too much i guess, lots wrong though and its not in standard its in Eb...

I want to post or [tab]
guest
You may want to rate the tab now too:
select rating
Please do not post tabs as comments. Select "correction" instead!