Oops, an error
Loading. Please wait.

The End Of The Line Tab

version 1
version 1

Whole song

Interactive

202,589 views 114 this week
30 commentsread comments
1 2 3 4 5
accurate
x 59
add to favorites
launch autoscroll
font size
0
reset
how to read this tab
guitar tuner
Autoscroll
slow
fast
+/-
esc
set tempo
stop
Help us to improve Ultimate-Guitar.com Take our survey!
×
This is all I've done so far, roughly the first 4 minutes. It may not be 100% but I 
it's pretty close and would be a good starting point if someone wants to do the whole thing. 
got the album this morning, hope s'all cool.

I did it in Guitar Pro so I may upload that instead at some point.

Standard Tuning


[Intro]
                                                                  PM PM
     E.  E  S S S S S Q.        S S S S  S S  S  S  S S  S S S S S  S
e|--------------------------|-----------------------------------------|
B|--------------------------|-----------------------------------------|
G|--------------------------|-----------------------------------------|
D|--------------------------|-----------------------------------------|
A|--3---2----5---5---2------|--8-8-8-7~-L-7-10-10-10-7~-L-7-5-7-------|
E|--1---0--0-3---3---0------|-----------------------------------0--0--|


                                                                PM PM
    E.  E  S S S S S Q.        S S S S  S S  S  S  S S  S S S S S  S
e|--------------------------|-----------------------------------------|
B|--------------------------|-----------------------------------------|
G|--------------------------|-----------------------------------------|
D|--------------------------|-----------------------------------------|
A|--3---2----5---5---2------|--8-8-8-7~-L-7-10-10-10-7~-L-7-5-7-------|
E|--1---0--0-3---3---0------|-----------------------------------0--0--|


                                                                PM PM
    E.  E  S S S S S Q.        S S S S  S S  S  S  S S  S S S S S  S
e|--------------------------|-----------------------------------------|
B|--------------------------|-----------------------------------------|
G|--------------------------|-----------------------------------------|
D|--------------------------|-----------------------------------------|
A|--3---2----5---5---2------|--8-8-8-7~-L-7-10-10-10-7~-L-7-5-7-------|
E|--1---0--0-3---3---0------|-----------------------------------0--0--|


    E.  E  S S S S S Q.        S S S S  S S  S  S  S S  S S S S S S
e|--------------------------|---------------------------------------|
B|--------------------------|---------------------------------------|
G|--------------------------|---------------------------------------|
D|--------------------------|---------------------------------------|
A|--3---2----5---5---2------|--8-8-8-7~-L-7-10-10-10-7~-L-7-5-7-----|
E|--1---0--0-3---3---0------|---------------------------------------|


                         PM PM PM PM PM PM
    S S S S S S S  S S S S  S  S  S  S  S
e|-----------------------------------------|
B|-----------------------------------------|
G|-----------------------------------------|
D|-----------------------------------------|
A|--3-3-3-2---2-2h-5-5---------------------|
E|--1-1-1-0---0-0h-3-3---0--0--0--0--0--0--|


                         PM PM PM PM PM PM
    S S S S S S S  S S S S  S  S  S  S  S
e|-----------------------------------------|
B|-----------------------------------------|
G|-----------------------------------------|
D|-----------------------------------------|
A|--3-3-3-2---2-2h-5-5---------------------|
E|--1-1-1-0---0-0h-3-3---0--0--0--0--0--0--|


                         PM PM PM PM PM PM
    S S S S S S S  S S S S  S  S  S  S  S
e|-----------------------------------------|
B|-----------------------------------------|
G|-----------------------------------------|
D|-----------------------------------------|
A|--3-3-3-2---2-2h-5-5---------------------|
E|--1-1-1-0---0-0h-3-3---0--0--0--0--0--0--|


                         PM PM PM PM PM PM
    S S S S S S S  S S S S  S  S  S  S  S     E.  E  S  S S  S S Q.
e|-----------------------------------------|----------------------------|
B|-----------------------------------------|----------------------------|
G|-----------------------------------------|----------------------------|
D|-----------------------------------------|----------------------------|
A|--3-3-3-2---2-2h-5-5---------------------|--8---7----10---10---7------|
E|--1-1-1-0---0-0h-3-3---0--0--0--0--0--0--|--6---5--5--8----8---5------|


     E.  E  S  S S  S S E  E  E     W                   W
e|-------------------------------|-------------------|-------------------|
B|-------------------------------|-------------------|-------------------|
G|-------------------------------|-------------------|-------------------|
D|-------------------------------|-------------------|-------------------|
A|--10---9----12---12---9-----2--|--L----------------|--L----------------|
E|---8---7--7-10---10---7-----0--|--L----------------|--L----------------|

   Riff 1
    E.  S S  S E.  S S S S S E      E.  S S  S E.  S S S S S E
e|-------------------------------|-------------------------------|
B|-------------------------------|-------------------------------|
G|-------------------------------|-------------------------------|
D|-------------------------------|-------------------------------|
A|-----------------------5---7~--|-----------------------5---7~--|
E|--0---0-5h-6-0---0-5-6---6-----|--0---0-5h-6-0---0-5-6---6-----|


    E.  S S  S E.  S S S S S E      E.  S S  S E.  S S S S S E
e|-------------------------------|-------------------------------|
B|-------------------------------|-------------------------------|
G|-------------------------------|-------------------------------|
D|-------------------------------|-----------------------5-------|
A|-----------------------5---7~--|-------------------------5-7~--|
E|--0---0-5h-6-0---0-5-6---6-----|--0---0-5h-6-0---0-5-6---------|


    E.  S S  S E.  S S S S S E      E.  S S  S E.  S S S S S E
e|-------------------------------|-------------------------------|
B|-------------------------------|-------------------------------|
G|-------------------------------|-------------------------------|
D|-------------------------------|-------------------------------|
A|-----------------------5---7~--|-----------------------5---7~--|
E|--0---0-5h-6-0---0-5-6---6-----|--0---0-5h-6-0---0-5-6---6-----|


                                                   PM PM PM PM PM PM PM
    E.  S S  S E.  S S S S S E      E.  S S  S E.  S  S  S  S  S  S  S
e|-------------------------------|--------------------------------------|
B|-------------------------------|--------------------------------------|
G|-------------------------------|--------------------------------------|
D|-------------------------------|--------------------------------------|
A|-----------------------5---7~--|--------------------------------------|
E|--0---0-5h-6-0---0-5-6---6-----|--0---0-5h-6-0---0--0--0--0--0--0--0--|

   Riff 2
      PM PM PM      PM PM PM PM      PM PM
    S S  S  S  S  S S  S  S  S  S  S S  S  S  S
e|----------------------------------------------|
B|----------------------------------------------|
G|----------------------------------------------|
D|----------------------------------------------|
A|--2----------7S-8-------------7S-8-------7S-9-|
E|--0-0--0--0--5S-6-0--0--0--0--5S-6-0--0--5S-7-|


      PM PM PM      PM PM PM PM      PM PM
    S S  S  S  S  S S  S  S  S  S  S S  S  S  S
e|----------------------------------------------|
B|----------------------------------------------|
G|----------------------------------------------|
D|----------------------------------------------|
A|--2----------7S-8-------------7S-8-------7S-9-|
E|--0-0--0--0--5S-6-0--0--0--0--5S-6-0--0--5S-7-|


      PM PM PM      PM PM PM PM      PM PM
    S S  S  S  S  S S  S  S  S  S  S S  S  S  S
e|----------------------------------------------|
B|----------------------------------------------|
G|----------------------------------------------|
D|----------------------------------------------|
A|--2----------7S-8-------------7S-8-------7S-9-|
E|--0-0--0--0--5S-6-0--0--0--0--5S-6-0--0--5S-7-|


      PM PM PM      PM PM PM PM      PM PM
    S S  S  S  S  S S  S  S  S  S  S S  S  S  S
e|----------------------------------------------|
B|----------------------------------------------|
G|----------------------------------------------|
D|----------------------------------------------|
A|--2----------7S-8-------------7S-8-------7S-9-|
E|--0-0--0--0--5S-6-0--0--0--0--5S-6-0--0--5S-7-|


      PM PM PM   PM PM PM   PM PM PM   PM PM PM
    S S  S  S  S S  S  S  S S  S  S  S S  S  S
e|----------------------------------------------|
B|----------------------------------------------|
G|----------------------------------------------|
D|----------------------------------------------|
A|--2----------3----------5----------8----------|
E|--0-0--0--0--1-0--0--0--3-0--0--0--6-0--0--0--|


       PM PM PM PM             PM PM PM
    E  S  S  S  S  S S  S  S S S  S  S  E
e|-----------------------------------------|
B|-----------------------------------------|
G|-----------------9-9S-7S-9-9-------------|
D|-----------------------------------------|
A|--2--------------7-7S-5S-7-7----------3--|
E|--0--0--0--0--0--------------0--0--0--1--|


       PM PM PM PM                 PM
    E  S  S  S  S  S S  S  S S S S S  E
e|---------------------------------------|
B|---------------------------------------|
G|-----------------9-9S-7S-9---9---------|
D|---------------------------------------|
A|--2--------------7-7S-5S-7---7------3--|
E|--0--0--0--0--0------------------0--1--|


       PM PM PM PM             PM PM PM
    E  S  S  S  S  S S  S  S S S  S  S  E
e|-----------------------------------------|
B|-----------------------------------------|
G|-----------------9-9S-7S-9-9-------------|
D|-----------------------------------------|
A|--2--------------7-7S-5S-7-7----------3--|
E|--0--0--0--0--0--------------0--0--0--1--|


      PM PM PM   PM PM PM   PM PM PM   PM PM PM
    S S  S  S  S S  S  S  S S  S  S  S S  S  S
e|----------------------------------------------|
B|----------------------------------------------|
G|----------------------------------------------|
D|----------------------------------------------|
A|--2----------3----------5----------8----------|
E|--0-0--0--0--1-0--0--0--3-0--0--0--6-0--0--0--|


       PM PM PM PM             PM PM PM
    E  S  S  S  S  S S  S  S S S  S  S  E
e|-----------------------------------------|
B|-----------------------------------------|
G|-----------------9-9S-7S-9-9-------------|
D|-----------------------------------------|
A|--2--------------7-7S-5S-7-7----------3--|
E|--0--0--0--0--0--------------0--0--0--1--|


       PM PM PM PM             PM PM PM
    E  S  S  S  S  S S  S  S S S  S  S  E
e|-----------------------------------------|
B|-----------------------------------------|
G|-----------------9-9S-7S-9-9-------------|
D|-----------------------------------------|
A|--2--------------7-7S-5S-7-7----------3--|
E|--0--0--0--0--0--------------0--0--0--1--|
                                      Second guitar plays the harmony notes

       PM PM PM PM             PM PM PM
    E  S  S  S  S  S S  S  S S S  S  S  E
e|-----------------------------------------|
B|-----------------------------------------|
G|-----------------------------------------|
D|-----------------5-5S-4S-5-5-------------|
A|--2--------------7-7S-5S-7-7----------3--|
E|--0--0--0--0--0--------------0--0--0--1--|


      PM PM PM   PM PM PM   PM PM PM   PM PM PM
    S S  S  S  S S  S  S  S S  S  S  S S  S  S
e|----------------------------------------------|
B|----------------------------------------------|
G|----------------------------------------------|
D|----------------------------------------------|
A|--2----------3----------5----------8----------|
E|--0-0--0--0--1-0--0--0--3-0--0--0--6-0--0--0--|


       PM PM      PM PM PM PM      PM PM
    E  S  S  S  S S  S  S  S  S  S S  S  S  S    E.  S S  S E.  S S S S S E
e|--------------------------------------------|-------------------------------|
B|--------------------------------------------|-------------------------------|
G|--------------------------------------------|-------------------------------|
D|--------------------------------------------|-------------------------------|
A|--2--------7S-8-------------7S-8-------7S-9-|-----------------------5---7~--|
E|--0--0--0--5S-6-0--0--0--0--5S-6-0--0--5S-7-|--0---0-5h-6-0---0-5-6---6-----|


    E.  S S  S E.  S S S S S E      E.  S S  S E.  S S S S S E
e|-------------------------------|-------------------------------|
B|-------------------------------|-------------------------------|
G|-------------------------------|-------------------------------|
D|-------------------------------|-------------------------------|
A|-----------------------5---7~--|-----------------------5---7~--|
E|--0---0-5h-6-0---0-5-6---6-----|--0---0-5h-6-0---0-5-6---6-----|


                   PM PM PM PM PM PM PM
    E.  S S  S E.  S  S  S  S  S  S  S
e|--------------------------------------|
B|--------------------------------------|
G|--------------------------------------|
D|--------------------------------------|
A|--------------------------------------|
E|--0---0-5h-6-0---0--0--0--0--0--0--0--|


      PM PM PM      PM PM PM PM      PM PM
    S S  S  S  S  S S  S  S  S  S  S S  S  S  S
e|----------------------------------------------|
B|----------------------------------------------|
G|----------------------------------------------|
D|----------------------------------------------|
A|--2----------7S-8-------------7S-8-------7S-9-|
E|--0-0--0--0--5S-6-0--0--0--0--5S-6-0--0--5S-7-|


      PM PM PM      PM PM PM PM      PM PM
    S S  S  S  S  S S  S  S  S  S  S S  S  S  S
e|----------------------------------------------|
B|----------------------------------------------|
G|----------------------------------------------|
D|----------------------------------------------|
A|--2----------7S-8-------------7S-8-------7S-9-|
E|--0-0--0--0--5S-6-0--0--0--0--5S-6-0--0--5S-7-|


      PM PM PM      PM PM PM PM      PM PM
    S S  S  S  S  S S  S  S  S  S  S S  S  S  S
e|----------------------------------------------|
B|----------------------------------------------|
G|----------------------------------------------|
D|----------------------------------------------|
A|--2----------7S-8-------------7S-8-------7S-9-|
E|--0-0--0--0--5S-6-0--0--0--0--5S-6-0--0--5S-7-|


      PM PM PM      PM PM PM PM      PM PM
    S S  S  S  S  S S  S  S  S  S  S S  S  S  S
e|----------------------------------------------|
B|----------------------------------------------|
G|----------------------------------------------|
D|----------------------------------------------|
A|--2----------7S-8-------------7S-8-------7S-9-|
E|--0-0--0--0--5S-6-0--0--0--0--5S-6-0--0--5S-7-|


      PM PM PM   PM PM PM   PM PM PM   PM PM PM
    S S  S  S  S S  S  S  S S  S  S  S S  S  S
e|----------------------------------------------|
B|----------------------------------------------|
G|----------------------------------------------|
D|----------------------------------------------|
A|--2----------3----------5----------8----------|
E|--0-0--0--0--1-0--0--0--3-0--0--0--6-0--0--0--|


       PM PM PM PM             PM PM PM
    E  S  S  S  S  S S  S  S S S  S  S  E
e|-----------------------------------------|
B|-----------------------------------------|
G|-----------------9-9S-7S-9-9-------------|
D|-----------------------------------------|
A|--2--------------7-7S-5S-7-7----------3--|
E|--0--0--0--0--0--------------0--0--0--1--|


       PM PM PM PM                 PM
    E  S  S  S  S  S S  S  S S S S S  E
e|---------------------------------------|
B|---------------------------------------|
G|-----------------9-9S-7S-9---9---------|
D|---------------------------------------|
A|--2--------------7-7S-5S-7---7------3--|
E|--0--0--0--0--0------------------0--1--|


       PM PM PM PM             PM PM PM
    E  S  S  S  S  S S  S  S S S  S  S  E
e|-----------------------------------------|
B|-----------------------------------------|
G|-----------------9-9S-7S-9-9-------------|
D|-----------------------------------------|
A|--2--------------7-7S-5S-7-7----------3--|
E|--0--0--0--0--0--------------0--0--0--1--|


      PM PM PM   PM PM PM   PM PM PM   PM PM PM
    S S  S  S  S S  S  S  S S  S  S  S S  S  S
e|----------------------------------------------|
B|----------------------------------------------|
G|----------------------------------------------|
D|----------------------------------------------|
A|--2----------3----------5----------8----------|
E|--0-0--0--0--1-0--0--0--3-0--0--0--6-0--0--0--|


       PM PM PM PM             PM PM PM
    E  S  S  S  S  S S  S  S S S  S  S  E
e|-----------------------------------------|
B|-----------------------------------------|
G|-----------------9-9S-7S-9-9-------------|
D|-----------------------------------------|
A|--2--------------7-7S-5S-7-7----------3--|
E|--0--0--0--0--0--------------0--0--0--1--|


       PM PM PM PM             PM PM PM
    E  S  S  S  S  S S  S  S S S  S  S  E
e|-----------------------------------------|
B|-----------------------------------------|
G|-----------------9-9S-7S-9-9-------------|
D|-----------------------------------------|
A|--2--------------7-7S-5S-7-7----------3--|
E|--0--0--0--0--0--------------0--0--0--1--|


       PM PM PM PM             PM PM PM
    E  S  S  S  S  S S  S  S S S  S  S  E
e|-----------------------------------------|
B|-----------------------------------------|
G|-----------------------------------------|
D|-----------------5-5S-4S-5-5-------------|
A|--2--------------7-7S-5S-7-7----------3--|
E|--0--0--0--0--0--------------0--0--0--1--|


      PM PM PM   PM PM PM   PM PM PM   PM PM PM
    S S  S  S  S S  S  S  S S  S  S  S S  S  S
e|----------------------------------------------|
B|----------------------------------------------|
G|----------------------------------------------|
D|----------------------------------------------|
A|--2----------3----------5----------8----------|
E|--0-0--0--0--1-0--0--0--3-0--0--0--6-0--0--0--|


       PM PM      PM PM PM PM      PM PM
    E  S  S  S  S S  S  S  S  S  S S  S  S  S
e|--------------------------------------------|
B|--------------------------------------------|
G|--------------------------------------------|
D|--------------------------------------------|
A|--2--------7S-8-------------7S-8-------7S-9-|
E|--0--0--0--5S-6-0--0--0--0--5S-6-0--0--5S-7-|


    S S  S S S  S S S  S S S  S S S  S S    S S  S S S  S S S  S S S  S S S  S S
e|---------------------------------------|--------------------------------------|
B|---------------------------------------|--------------------------------------|
G|---------------------------------------|--------------------------------------|
D|---------------------------------------|--------------------------------------|
A|---------------------------------------|--------------------------------------|
E|-0-5h-6-0-5h-6-0-5h-6-0-5h-6-0-5h-6-6-|--0-5h-6-0-5h-6-0-5h-6-0-5h-6-0-5h66---|


[Chorus]

    E   S S  S  S S  S S  S  S S  S  S  S  S
e|-------------------------------------------|
B|-------------------------------------------|
G|-------------------------------------------|
D|-------------------------------------------|
A|-------------------------------------------|
E|--0--15-0-15-15-0-15-0-15-15-0-15-15-15-15-|


    E   S S  S  S S  S S  S  S S  S  S  S  S
e|-------------------------------------------|
B|-------------------------------------------|
G|-------------------------------------------|
D|-------------------------------------------|
A|-------------------------------------------|
E|--0--15-0-15-15-0-15-0-15-15-0-15-15-15-15-|


    E   S S  S  S S  S S  S  S S  S  S  S  S
e|-------------------------------------------|
B|-------------------------------------------|
G|-------------------------------------------|
D|-------------------------------------------|
A|-------------------------------------------|
E|--0--15-0-15-15-0-15-0-15-15-0-15-15-15-15-|


    E   S S  S  S S  S S  S  S S  S  S  S  S
e|-------------------------------------------|
B|-------------------------------------------|
G|-------------------------------------------|
D|-------------------------------------------|
A|-------------------------------------------|
E|--0--15-0-15-15-0-15-0-15-15-0-15-15-15-15-|


    E   S S  S  S S  S S  S  S S  S  S  S  S
e|-------------------------------------------|
B|-------------------------------------------|
G|-------------------------------------------|
D|-------------------------------------------|
A|-------------------------------------------|
E|--0--15-0-15-15-0-15-0-15-15-0-15-15-15-15-|


    E   S S  S  S S  S S  S  S S  S  S  S  S
e|-------------------------------------------|
B|-------------------------------------------|
G|-------------------------------------------|
D|-------------------------------------------|
A|-------------------------------------------|
E|--0--15-0-15-15-0-15-0-15-15-0-15-15-15-15-|


    E   S S  S  S S  S S  S  S S  S  S  S  S
e|-------------------------------------------|
B|-------------------------------------------|
G|-------------------------------------------|
D|-------------------------------------------|
A|-------------------------------------------|
E|--0--15-0-15-15-0-15-0-15-15-0-15-15-15-15-|


    E   S S  S  S S  S S  S  S S  S  S  S  S
e|-------------------------------------------|
B|-------------------------------------------|
G|-------------------------------------------|
D|-------------------------------------------|
A|-------------------------------------------|
E|--0--15-0-15-15-0-15-0-15-15-0-15-15-15-15-|


  |--3--|  |--3--|  |--3--|  |--3--|
  E  E  E  E  E  E  E  E  E  E  E  E     E.  S S  S E.  S S S S S E

e|--------------------------------------|-------------------------------|
B|--------------------------------------|-------------------------------|
G|--------------------------------------|-------------------------------|
D|--------------------------------------|-------------------------------|
A|--8-----8-----8-----8-----8-----8-----|-----------------------5---7~--|
E|--6-----6-----6-----6-----6-----6-----|--0---0-5h-6-0---0-5-6---6-----|


    E.  S S  S E.  S S S S S E      E.  S S  S E.  S S S S S E
e|-------------------------------|-------------------------------|
B|-------------------------------|-------------------------------|
G|-------------------------------|-------------------------------|
D|-------------------------------|-------------------------------|
A|-----------------------5---7~--|-----------------------5---7~--|
E|--0---0-5h-6-0---0-5-6---6-----|--0---0-5h-6-0---0-5-6---6-----|


    E.  S S  S E.  S S S S S E      E.  S S  S E.  S S S S S E
e|-------------------------------|-------------------------------|
B|-------------------------------|-------------------------------|
G|-------------------------------|-------------------------------|
D|-----------------------5-------|-------------------------------|
A|-------------------------5-7~--|-----------------------5---7~--|
E|--0---0-5h-6-0---0-5-6---------|--0---0-5h-6-0---0-5-6---6-----|


    E.  S S  S E.  S S S S S E      E.  S S  S E.  S S S S S E
e|-------------------------------|-------------------------------|
B|-------------------------------|-------------------------------|
G|-------------------------------|-------------------------------|
D|-------------------------------|-------------------------------|
A|-----------------------5---7~--|-----------------------5---7~--|
E|--0---0-5h-6-0---0-5-6---6-----|--0---0-5h-6-0---0-5-6---6-----|


                   PM PM PM PM PM PM PM
    E.  S S  S E.  S  S  S  S  S  S  S
e|--------------------------------------|
B|--------------------------------------|
G|--------------------------------------|
D|--------------------------------------|
A|--------------------------------------|
E|--0---0-5h-6-0---0--0--0--0--0--0--0--|


      PM PM PM      PM PM PM PM      PM PM
    S S  S  S  S  S S  S  S  S  S  S S  S  S  S
e|----------------------------------------------|
B|----------------------------------------------|
G|----------------------------------------------|
D|----------------------------------------------|
A|--2----------7S-8-------------7S-8-------7S-9-|
E|--0-0--0--0--5S-6-0--0--0--0--5S-6-0--0--5S-7-|


      PM PM PM      PM PM PM PM      PM PM
    S S  S  S  S  S S  S  S  S  S  S S  S  S  S
e|----------------------------------------------|
B|----------------------------------------------|
G|----------------------------------------------|
D|----------------------------------------------|
A|--2----------7S-8-------------7S-8-------7S-9-|
E|--0-0--0--0--5S-6-0--0--0--0--5S-6-0--0--5S-7-|


      PM PM PM      PM PM PM PM      PM PM
    S S  S  S  S  S S  S  S  S  S  S S  S  S  S
e|----------------------------------------------|
B|----------------------------------------------|
G|----------------------------------------------|
D|----------------------------------------------|
A|--2----------7S-8-------------7S-8-------7S-9-|
E|--0-0--0--0--5S-6-0--0--0--0--5S-6-0--0--5S-7-|


      PM PM PM      PM PM PM PM      PM PM
    S S  S  S  S  S S  S  S  S  S  S S  S  S  S
e|----------------------------------------------|
B|----------------------------------------------|
G|----------------------------------------------|
D|----------------------------------------------|
A|--2----------7S-8-------------7S-8-------7S-9-|
E|--0-0--0--0--5S-6-0--0--0--0--5S-6-0--0--5S-7-|


      PM PM PM   PM PM PM   PM PM PM   PM PM PM
    S S  S  S  S S  S  S  S S  S  S  S S  S  S
e|----------------------------------------------|
B|----------------------------------------------|
G|----------------------------------------------|
D|----------------------------------------------|
A|--2----------3----------5----------8----------|
E|--0-0--0--0--1-0--0--0--3-0--0--0--6-0--0--0--|


       PM PM PM PM             PM PM PM
    E  S  S  S  S  S S  S  S S S  S  S  E
e|-----------------------------------------|
B|-----------------------------------------|
G|-----------------9-9S-7S-9-9-------------|
D|-----------------------------------------|
A|--2--------------7-7S-5S-7-7----------3--|
E|--0--0--0--0--0--------------0--0--0--1--|


       PM PM PM PM                 PM
    E  S  S  S  S  S S  S  S S S S S  E
e|---------------------------------------|
B|---------------------------------------|
G|-----------------9-9S-7S-9---9---------|
D|---------------------------------------|
A|--2--------------7-7S-5S-7---7------3--|
E|--0--0--0--0--0------------------0--1--|


       PM PM PM PM             PM PM PM
    E  S  S  S  S  S S  S  S S S  S  S  E
e|-----------------------------------------|
B|-----------------------------------------|
G|-----------------9-9S-7S-9-9-------------|
D|-----------------------------------------|
A|--2--------------7-7S-5S-7-7----------3--|
E|--0--0--0--0--0--------------0--0--0--1--|


      PM PM PM   PM PM PM   PM PM PM   PM PM PM
    S S  S  S  S S  S  S  S S  S  S  S S  S  S
e|----------------------------------------------|
B|----------------------------------------------|
G|----------------------------------------------|
D|----------------------------------------------|
A|--2----------3----------5----------8----------|
E|--0-0--0--0--1-0--0--0--3-0--0--0--6-0--0--0--|


       PM PM PM PM             PM PM PM
    E  S  S  S  S  S S  S  S S S  S  S  E
e|-----------------------------------------|
B|-----------------------------------------|
G|-----------------9-9S-7S-9-9-------------|
D|-----------------------------------------|
A|--2--------------7-7S-5S-7-7----------3--|
E|--0--0--0--0--0--------------0--0--0--1--|


       PM PM PM PM             PM PM PM
    E  S  S  S  S  S S  S  S S S  S  S  E
e|-----------------------------------------|
B|-----------------------------------------|
G|-----------------9-9S-7S-9-9-------------|
D|-----------------------------------------|
A|--2--------------7-7S-5S-7-7----------3--|
E|--0--0--0--0--0--------------0--0--0--1--|


       PM PM PM PM             PM PM PM
    E  S  S  S  S  S S  S  S S S  S  S  E
e|-----------------------------------------|
B|-----------------------------------------|
G|-----------------------------------------|
D|-----------------5-5S-4S-5-5-------------|
A|--2--------------7-7S-5S-7-7----------3--|
E|--0--0--0--0--0--------------0--0--0--1--|


      PM PM PM   PM PM PM   PM PM PM   PM PM PM
    S S  S  S  S S  S  S  S S  S  S  S S  S  S
e|----------------------------------------------|
B|----------------------------------------------|
G|----------------------------------------------|
D|----------------------------------------------|
A|--2----------3----------5----------8----------|
E|--0-0--0--0--1-0--0--0--3-0--0--0--6-0--0--0--|


       PM PM      PM PM PM PM      PM PM
    E  S  S  S  S S  S  S  S  S  S S  S  S  S
e|--------------------------------------------|
B|--------------------------------------------|
G|--------------------------------------------|
D|--------------------------------------------|
A|--2--------7S-8-------------7S-8-------7S-9-|
E|--0--0--0--5S-6-0--0--0--0--5S-6-0--0--5S-7-|


    S S  S S S  S S S  S S S  S S S  S S    S S  S S S  S S S  S S S  S S S  S S
e|---------------------------------------|--------------------------------------|
B|---------------------------------------|--------------------------------------|
G|---------------------------------------|--------------------------------------|
D|---------------------------------------|--------------------------------------|
A|---------------------------------------|--------------------------------------|
E|0-5h-6-0-5h-6-0-5h-6-0-5h-6-0-5h-6-6-|--0-5h-6-0-5h-6-0-5h-6-0-5h-6-0-5h-66---|


    E   S S  S  S S  S S  S  S S  S  S  S  S
e|-------------------------------------------|
B|-------------------------------------------|
G|-------------------------------------------|
D|-------------------------------------------|
A|-------------------------------------------|
E|--0--15-0-15-15-0-15-0-15-15-0-15-15-15-15-|


    E   S S  S  S S  S S  S  S S  S  S  S  S
e|-------------------------------------------|
B|-------------------------------------------|
G|-------------------------------------------|
D|-------------------------------------------|
A|-------------------------------------------|
E|--0--15-0-15-15-0-15-0-15-15-0-15-15-15-15-|


    E   S S  S  S S  S S  S  S S  S  S  S  S
e|-------------------------------------------|
B|-------------------------------------------|
G|-------------------------------------------|
D|-------------------------------------------|
A|-------------------------------------------|
E|--0--15-0-15-15-0-15-0-15-15-0-15-15-15-15-|


    E   S S  S  S S  S S  S  S S  S  S  S  S
e|-------------------------------------------|
B|-------------------------------------------|
G|-------------------------------------------|
D|-------------------------------------------|
A|-------------------------------------------|
E|--0--15-0-15-15-0-15-0-15-15-0-15-15-15-15-|


    E   S S  S  S S  S S  S  S S  S  S  S  S
e|-------------------------------------------|
B|-------------------------------------------|
G|-------------------------------------------|
D|-------------------------------------------|
A|-------------------------------------------|
E|--0--15-0-15-15-0-15-0-15-15-0-15-15-15-15-|


    E   S S  S  S S  S S  S  S S  S  S  S  S
e|-------------------------------------------|
B|-------------------------------------------|
G|-------------------------------------------|
D|-------------------------------------------|
A|-------------------------------------------|
E|--0--15-0-15-15-0-15-0-15-15-0-15-15-15-15-|


    E   S S  S  S S  S S  S  S S  S  S  S  S
e|-------------------------------------------|
B|-------------------------------------------|
G|-------------------------------------------|
D|-------------------------------------------|
A|-------------------------------------------|
E|--0--15-0-15-15-0-15-0-15-15-0-15-15-15-15-|


    E   S S  S  S S  S S  S  S S  S  S  S  S
e|-------------------------------------------|
B|-------------------------------------------|
G|-------------------------------------------|
D|-------------------------------------------|
A|-------------------------------------------|
E|--0--15-0-15-15-0-15-0-15-15-0-15-15-15-15-|


  |--3--|  |--3--|  |--3--|  |--3--|
  E  E  E  E  E  E  E  E  E  E  E  E

e|--------------------------------------||
B|--------------------------------------||
G|--------------------------------------||
D|--------------------------------------||
A|--8-----8-----8-----8-----8-----8-----||
E|--6-----6-----6-----6-----6-----6-----||



************************************

| h  Hammer-on
| ~  Vibrato

************************************
Suggest correction
comments
print report bad tab
30 comments total. Showing first comments.
+2 reply
Gresp 10 wrote on September 13 2008, 11:36 am

Very good tab man, just there is no solo.

-2 reply
Jackolas 20 wrote on September 13 2008, 01:44 pm

Are you sure this isn't in Eb?

+4 reply
Sithlordaxel 10 wrote on September 13 2008, 04:57 pm

Definitely in standard tuning, play along with the song and you can tell.
Awesome tab by the way.

guest
You may want to rate the tab now too:
select rating
Please do not post tabs as comments. Select "correction" instead!