Oops, an error
Loading. Please wait.

The End Of The Line Bass

version 2
version 2

Whole song

  • Based on the bass master track: http://www.youtube.com/watch?v=f-x-dfAETfM.

Interactive

5,179 views 9 this week
1 commentread comment
1 2 3 4 5
x 6
add to favorites
×
Save as Personal and add changes to this tab that will be seen only by you. Learn more ›
×
You can save this tab as Personal to edit and correct it or add notes. All changes will be seen only by you. Learn more »
save as personal
new!
launch autoscroll
font size
0
reset
guitar tuner
backing track
0:00
0:00
Autoscroll
slow
fast
+/-
esc
set tempo
stop
Author
Tuning
Intro

G|-----------------------------------------------------|
D|--------------15-15-15-14--14-17-17-17-14--14-12-15\-|
A|-----------------------------------------------------| x4
E|-1--0--3-3-0-----------------------------------------|
B|-----------------------------------------------------|

G|------------------------------|
D|------------------------------|
A|------------------------------| x4
E|-1-1-1-0--0-0h3-3-0-0-0-0-0-0-|
B|------------------------------|

G|----------------------------|
D|----------------------------|
A|----------------------------|
E|-6-5-8-8-5/--8-7-10-10-7----|
B|--------------------------5-|

G|----|
D|----|
A|----|
E|-7\-|
B|----|

G|---------------------------|
D|---------------------------|
A|---------------------------| x3
E|-0--0-5h6-00000-5h6-00-5h6-|
B|---------------------------|

G|----------------------|
D|----------------5p0---|
A|--------------------7-|
E|-0--0-5h6-000-0-------|
B|----------------------|

G|---------------------------|
D|---------------------------|
A|---------------------------| x3
E|-0--0-5h6-00000-5h6-00-5h6-|
B|---------------------------|

G|--------------|
D|--------------|
A|--------------|
E|-0--0-5h6-0-0-|
B|--------------|

G|-----------------------------|
D|-----------------------------|
A|-----------------------------|
E|-0--5h6--5h6--5h6--5h6---15\-|
B|-----------------------------|

G|-----------------------------------------------------------------|
D|-----------------------------------------------------------------|
A|-----------------------------------------------------------------|
E|-0-0-0-0-5h6-0-0-5h6-0-0-0-0-5h6-0-0-0-0-5h6-0-0-5h6-0-0-0-0-5h6-|
B|-----------------------------------------------------------------|
 |
G|-----------------------------------------------------|
D|-----------------------------------------------------|
A|-----------------------------------------------------|
E|-0-0-0-0-5h6-0-0-5h6-------------------------6-------|
B|---------------------5-5-5-5-6-5-5-5-8-5-5-5---5-5-5-|

Verse 1

G|----------------------------------|
D|----------------------------------|
A|----------------------------------| x3
E|----------------------------------|
B|-5--5-5-5-5-5-5-5-5-3h5-5-5-5-5-6-|

G|---------------------------------|
D|---------------------------------|
A|---------------------------------|
E|-------------------------6-------|
B|-5-5-5-5-6-5-5-5-8-5-5-5---5-5-5-|

G|----------------------------------|
D|----------------------------------|
A|----------------------------------| x3
E|----------------------------------|
B|-5--5-5-5-5-5-5-5-5-3h5-5-5-5-5-6-|

G|-----------------------------------|
D|-----------------------------------|
A|-----------------------------------|
E|-------------------------6---------|
B|-5-5-5-5-6-5-5-5-8-5-5-5---5-5-5-5-|

G|----------------------------------------|
D|----------------------------------------|
A|----------------------------------------|
E|-5h6--5h6-5h6-0--0-5h6-00000-5h6-00-5h6-|
B|----------------------------------------|

G|---------------------------|
D|---------------------------|
A|---------------------------| x2
E|-0--0-5h6-00000-5h6-00-5h6-|
B|---------------------------|

G|--------------------|
D|--------------------|
A|--------------------|
E|-0--0-5h6-0-0-------|
B|---------------5-1/-|

G|-----------------------------------------------------------------|
D|-----------------------------------------------------------------|
A|-----------------------------------------------------------------|
E|-5h6-0-0-5h6-0-0-0-0-5h6-0-0-0-0-5h6-0-0-5h6-0-0-0-0-5h6-0-0-0-0-|
B|-----------------------------------------------------------------|
 |
G|---------------------------------------------|
D|---------------------------------------------|
A|---------------------------------------------|
E|-5h6-0-0-5h6-------------------------6-------|
B|-------------5-5-5-5-6-5-5-5-8-5-5-5---5-5-5-|

Verse 2

G|----------------------------------|
D|----------------------------------|
A|----------------------------------| x3
E|----------------------------------|
B|-5--5-5-5-5-5-5-5-5-3h5-5-5-5-5-6-|

G|---------------------------------|
D|---------------------------------|
A|---------------------------------|
E|-------------------------6-------|
B|-5-5-5-5-6-5-5-5-8-5-5-5---5-5-5-|

G|----------------------------------|
D|----------------------------------|
A|----------------------------------| x3
E|----------------------------------|
B|-5--5-5-5-5-5-5-5-5-3h5-5-5-5-5-6-|

G|-----------------------------------|
D|-----------------------------------|
A|-----------------------------------|
E|-------------------------6---------|
B|-5-5-5-5-6-5-5-5-8-5-5-5---5-5-5-5-|

G|--------------|
D|--------------|
A|--------------|
E|-5h6--5h6-5h6-|
B|--------------|

G|-------------------------------|
D|-------------------------------|
A|-------------------------------| x2
E|-0-5h6-0-5h6-0-5h6-0-5h6-0-5-6-|
B|-------------------------------|

Chorus

G|-------------------------------------------|
D|-------------------------------------------|
A|-------------------------------------------| x2
E|-0-0-15-0-15-15-0-15-0-15-15-0-15-15-15-15-|
B|-------------------------------------------|

G|---------------------------------|
D|---------------------------------|
A|---------------------------------| x2
E|---------------------------------|
B|-5-5-8-5-8-8-5-8-5-8-8-5-8-8-8-8-|

G|-------------------------------------------|
D|-------------------------------------------|
A|-------------------------------------------| x3
E|-0-0-15-0-15-15-0-15-0-15-15-0-15-15-15-15-|
B|-------------------------------------------|

G|--------------------------|
D|--------------------------|
A|--------------1-1-1-1-1---|
E|-0-0-15-0-15\-------------|
B|------------------------6-|

G|---------------------------|
D|---------------------------|
A|---------------------------| x3
E|-0--0-5h6-00000-5h6-00-5h6-|
B|---------------------------|

G|----------------------|
D|----------------5p0---|
A|--------------------7-|
E|-0--0-5h6-000-0-------|
B|----------------------|

G|---------------------------|
D|---------------------------|
A|---------------------------| x3
E|-0--0-5h6-00000-5h6-00-5h6-|
B|---------------------------|

G|--------------|
D|--------------|
A|--------------|
E|-0--0-5h6-0-0-|
B|--------------|

G|-----------------------------|
D|-----------------------------|
A|-----------------------------|
E|-0--5h6--5h6--5h6--5h6---15\-|
B|-----------------------------|

G|-----------------------------------------------------------------|
D|-----------------------------------------------------------------|
A|-----------------------------------------------------------------|
E|---------5h6-----5h6---------5h6---------5h6-----5h6---------5h6-|
B|-5-5-5-5-----5-5-----5-5-5-5-----5-5-5-5-----5-5-----5-5-5-5-----|
 |
G|-----------------------------------------------------|
D|-----------------------------------------------------|
A|-----------------------------------------------------|
E|---------5h6-----5h6-------------------------6-------|
B|-5-5-5-5-----5-5-----5-5-5-5-6-5-5-5-8-5-5-5---5-5-5-|

Verse 3

G|----------------------------------|
D|----------------------------------|
A|----------------------------------| x3
E|----------------------------------|
B|-5--5-5-5-5-5-5-5-5-3h5-5-5-5-5-6-|

G|---------------------------------|
D|---------------------------------|
A|---------------------------------|
E|-------------------------6-------|
B|-5-5-5-5-6-5-5-5-8-5-5-5---5-5-5-|

G|----------------------------------|
D|----------------------------------|
A|----------------------------------| x3
E|----------------------------------|
B|-5--5-5-5-5-5-5-5-5-3h5-5-5-5-5-6-|

G|-----------------------------------|
D|-----------------------------------|
A|-----------------------------------|
E|-------------------------6---------|
B|-5-5-5-5-6-5-5-5-8-5-5-5---5-5-5-5-|

G|--------------|
D|--------------|
A|--------------|
E|-5h6--5h6-5h6-|
B|--------------|

G|-------------------------------|
D|-------------------------------|
A|-------------------------------| x2
E|-0-5h6-0-5h6-0-5h6-0-5h6-0-5-6-|
B|-------------------------------|

Chorus

G|-------------------------------------------|
D|-------------------------------------------|
A|-------------------------------------------| x2
E|-0-0-15-0-15-15-0-15-0-15-15-0-15-15-15-15-|
B|-------------------------------------------|

G|---------------------------------|
D|---------------------------------|
A|---------------------------------| x2
E|---------------------------------|
B|-5-5-8-5-8-8-5-8-5-8-8-5-8-8-8-8-|

G|-------------------------------------------|
D|-------------------------------------------|
A|-------------------------------------------| x3
E|-0-0-15-0-15-15-0-15-0-15-15-0-15-15-15-15-|
B|-------------------------------------------|

G|--------------------------|
D|--------------------------|
A|--------------1-1-1-1-1---|
E|-0-0-15-0-15\-------------|
B|------------------------6-|

Interlude 1

G|--------------------|
D|--------------------|
A|--------------------| x12
E|------------3h5-3h5-|
B|-5--5--5--5---------|

G|-------------------------------|
D|-------------------------------|
A|-5h7-7-7-----------------------| x4
E|---------5-7-7-7-3-5-5-5-5-5-0-|
B|-------------------------------|

G|---------------------------|
D|---------------------------|
A|---------------------------| x2
E|---------------------------|
B|-5-5-5-3--3-6-6-6-5--5-3/5-|

G|----------------------------------|
D|----------------------------------|
A|-8-8-8-7--7-10-10-10-7--7-5-7-7-7-|
E|----------------------------------|
B|----------------------------------|
 |
G|------------------------------|
D|------------------------------|
A|-8-8-8-7--7-10-10-10-7--7-5-7-|
E|------------------------------|
B|------------------------------|

G|----------------------------------------|
D|-15-15-15-14--14-17-17-17-14--14-12-15\-|
A|----------------------------------------|
E|----------------------------------------|
B|----------------------------------------|

Guitar Solo

G|------------------------------|
D|------------------------------|
A|------------------------------| x8
E|-1-1-1-0--0-0h3-3-0-0-0-0-0-0-|
B|------------------------------|

G|-----------------------------------------------------|
D|--------------15-15-15-14--14-17-17-17-14--14-12-15\-|
A|-----------------------------------------------------| x3
E|-1--0--3-3-0-----------------------------------------|
B|-----------------------------------------------------|

G|-------------|
D|-------------|
A|-------------|
E|-1--0--3-3-0-|
B|-------------|

G|-------------------------------------------|
D|-------------------------------------------|
A|-------------------------------------------| x2
E|-0-0-15-0-15-15-0-15-0-15-15-0-15-15-15-15-|
B|-------------------------------------------|

G|---------------------------------|
D|---------------------------------|
A|---------------------------------| x2
E|---------------------------------|
B|-5-5-8-5-8-8-5-8-5-8-8-5-8-8-8-8-|

G|---------------------------|
D|---------------------------|
A|---------------------------| x4
E|---------------------------|
B|-5-5-5-5-5-5-5-5-5-5-5-5-3-|

G|------------|------------|--------------|----------------|
D|------------|------------|--------------|----------------|
A|------------|------------|--------------|----------------|
E|------------|------------|--------------|----------------|
B|-5-5--5-5-5-|-5-5--5-5-5-|-5-5--5-5-5-5-|-5-5--5-5-5---5-|

Interlude 2

G|------|
D|------|
A|------|
E|------|
B|-10\5-|

G|-----------------|
D|-----------5-----|
A|--------7--------| x2
E|-0--5-7----------|
B|---------------5-|

G|---------------------------|
D|-----------5---------------|
A|--------7------------------|
E|-0--5-7--------------------|
B|---------------5---5-5-5-5-|

G|-----------------------------------------------|
D|-----------5-----------------------------------|
A|--------7----------------------77777775h777777-|
E|----5-7----------------------------------------|
B|-5-------------5-5-5-5-5-5-5-5-----------------|

G|-------------------------------------------|
D|-------------------------------------------|
A|-------------------------------------------| x2
E|-0-0-15-0-15-15-0-15-0-15-15-0-15-15-15-15-|
B|-------------------------------------------|

G|---------------------------------|
D|---------------------------------|
A|---------------------------------| x2
E|---------------------------------|
B|-5-5-8-5-8-8-5-8-5-8-8-5-8-8-8-8-|

G|-------------------------------------------|
D|-------------------------------------------|
A|-------------------------------------------| x3
E|-0-0-15-0-15-15-0-15-0-15-15-0-15-15-15-15-|
B|-------------------------------------------|
 |
G|--------------|
D|--------------|
A|--------------|
E|-0-0-15-0-15/-|
B|--------------|

G|---------------|
D|---------------|
A|-17h1919191919-| x6 (17 and 19, not 1 and 7 or 1 and 9)
E|---------------|
B|---------------|

G|--------------------------|
D|--------------------------|
A|-17h19191919\-1-1-1-1-1---|
E|--------------------------|
B|------------------------6-|

Outro

G|---------------------------|
D|---------------------------|
A|---------------------------| x2
E|------5h6-------5h6----5h6-|
B|-5--5-----55555-----55-----|

G|---------------------------|------------------|
D|---------------------------|------------------|
A|---------------------------|------------1-1---| x3
E|------5h6-------5h6----5h6-|------5h6---------|
B|-5--5-----55555-----55-----|-5--5-----5-----6-|

G|---------------------------|--------------------------|
D|---------------------------|--------------------------|
A|---------------------------|------------1-1-1-1-1-----|
E|------5h6-------5h6----5h6-|------5h6-----------------|
B|-5--5-----55555-----55-----|-5--5-----5-----------6-5-|

Legend
------
| / = slide up
| \ = slide down
| h = hammer-on
| p = pull-off
Suggest correction
comments
print report bad tab
1 comment total.
0 reply
Zaqq 589 Sep 28, 2012 06:39 AM

It sounds as he plays a chord at 0:42, not just an E note.

guest
You may want to rate the tab now too:
select rating
Wanna post a correction for this tab? Suggest correction