Oops, an error
Loading. Please wait.

The Four Horsemen Tab

version 1
41,927 views 66 this week
23 commentsread comments
1 2 3 4 5
x 27
add to favorites
launch autoscroll
font size
0
reset
how to read this tab
guitar tuner
Autoscroll
slow
fast
+/-
esc
set tempo
stop
Help us to improve Ultimate-Guitar.com Take our survey!
×
Author
[Solo 1]
e|-------------------------------------15^17-12-15--14b16-------|
B|--15^17-15^17--15^17-15p12-15-15^17---------------------------|
G|----------------------------------------------------------\9--|
D|--------------------------------------------------------------|
A|--------------------------------------------------------------|
E|--------------------------------------------------------------|

e|--7------9-7--------10-9-7------------------------------------|
B|----10-7-----10-8-7--------7h10p7---7-10p7--------------------|
G|-------------------------------------------9-7-6h7-6----------|
D|-----------------------------------------------------7--------|
A|-------------------------------------------------------7------|
E|--------------------------------------------------------------|

e|--------------------------------|
B|----12-12-12----12----12-12-12--|
G|--9-11-11-11/11-11/11-11-11-11--|
D|--------------------------------|
A|--------------------------------|
E|--------------------------------|

e|-------------------------------------------------|
B|-------------------------------------------------|
G|--14^16-14p11------------------------------------|
D|--------------14-12----12-14^16p12----12-12-12---|
A|--------------------14-------------14------------|
E|-------------------------------------------------|

e|------------------------------------------------------------|
B|-----------------------------------------12-13p12----12-13--|
G|--11h12-11----11-12-11h12p11----11-12-14----------14--------|
D|-----------14----------------14-----------------------------|
A|------------------------------------------------------------|
E|------------------------------------------------------------|

e|-----------------------------------20--|
B|--13/15--15/17--17/19--19/20-20~~~-----|
G|---------------------------------------|
D|---------------------------------------|
A|---------------------------------------|
E|---------------------------------------|

e|--17b19-17b19-15-17p15-14-15p14\12-14p12--
B|------------------------------------------
G|------------------------------------------
D|------------------------------------------
A|------------------------------------------
E|------------------------------------------

e|--------------------------------------------------------------|
B|--15-15-14-12-14-12-10-12-10-8-10-8---8-----------------------|
G|------------------------------------9---9-7-9-----------------|
D|----------------------------------------------9---------------|
A|------------------------------------------------10-17---------|
E|------------------------------------------------------10-7-7--|
                                                       . . .
e|----------------------------------------------12----12------|
B|--------------------8---8-10-8-10-12-10-12-15----15---------|
G|--------7---7-9-7-9---9-------------------------------------|
D|--9-7-9---9-------------------------------------------------|
A|------------------------------------------------------------|
E|------------------------------------------------------------|

e|--15p2-12-12-15p12-12-12-12-15p12-12-12-12-12-12-12-12-15p12--
B|--------------------------------------------------------------
G|--------------------------------------------------------------
D|--------------------------------------------------------------
A|--------------------------------------------------------------
E|--------------------------------------------------------------

e|--12-12-12-12-12-15^17-15^17-15^17-15-12-15p12-15p12-15-12-12h15p12----12--
B|--------------------------------------------------------------------15-----
G|---------------------------------------------------------------------------
D|---------------------------------------------------------------------------
A|---------------------------------------------------------------------------
E|---------------------------------------------------------------------------

e|--15p12-12h15p12----12-15p12-12--|
B|-----------------15--------------|
G|---------------------------------|
D|---------------------------------|
A|---------------------------------|
E|---------------------------------|

e|--15p12----12-15p12-12h15p12----12-15p12-15p12----12-15^17-15^17-15^17--|
B|--------15-------------------15----------------15-----------------------|
G|------------------------------------------------------------------------|
D|------------------------------------------------------------------------|
A|------------------------------------------------------------------------|
E|------------------------------------------------------------------------|

e|----------------------------------------------------------------------|
B|--12------------------------------------------------------------------|
G|-----14-12---------12h14-12p11h12p11----11----------------------------|
D|-----------14-12---------------------14----14--12p11h12p11\9--11p9\7--|
A|----------------------------------------------------------------------|
E|----------------------------------------------------------------------|

e|------------------------------------|
B|------------------------------------|
G|------------------------------------|
D|--9-10-9-10-9-10-9-10----8^10-------|
A|--7-8--7-8--7-8--7-8----------8^10--|
E|------------------------------------|

[Solo 2]
e|---------------------------------------12-15-12----12-17-12----
B|--------------------------------14--15----------15----------15-
G|-----------------------14----14--------------------------------
D|--------------14----13----12-----------------------------------
A|-----14----13----12--------------------------------------------
E|--13----12-----------------------------------------------------

e|-----12-15-12----12-17-12----12-15-12----12-17-12----12-15-12----12-17-12-----
B|--15----------15----------15----------15----------15----------15----------15--
G|------------------------------------------------------------------------------
D|------------------------------------------------------------------------------
A|------------------------------------------------------------------------------
E|------------------------------------------------------------------------------

e|----12-15-12----12-17-12----12-15-12----12-17-15----12-15-12----12-17-12------
B|-15----------15----------15----------15----------15----------15----------15---
G|------------------------------------------------------------------------------
D|------------------------------------------------------------------------------
A|------------------------------------------------------------------------------
E|------------------------------------------------------------------------------

e|--------------------------------------|
B|--15^17-15^7-15^17-15^17-15^17-15^17--|
g|--------------------------------------|
D|--------------------------------------|
A|--------------------------------------|
E|--------------------------------------|

(Repeat this part 8x)
e|------------------|--------------------------------------------------|
B|--15p14p12--------|--15p14p12----12----------------------------------|
G|-----------14^16--|-----------14----14-12-14-12----12----------------|
D|------------------|-----------------------------14----14-12-14-12----|
A|------------------|-----------------------------------------------14-|
E|------------------|--------------------------------------------------|
                                           (Repeat this part 6x)
e|----------------------------------------|--18-18-18-18-18-18h21p18|-21b-21b-|
B|-----------------------12-12(AH)-12(AH)-|-------------------------|---------|
G|-----------------------12---------------|-------------------------|---------|
D|-----------------12-14------------------|-------------------------|---------|
A|-----------12-14------------------------|-------------------------|---------|
E|--12-14-15------------------------------|-------------------------|---------|
                                       (THOSE 19^S THERE I DONT KNOW HOW MANY)
    (Repeat this part 3x)
e|--18-20-21-20-18----19-------------------|---------------------|
B|-----------------21----21-20-21-20-18----|---------------------|
G|--------------------------------------20-|--20^22-20^20-20^22--|
D|-----------------------------------------|---------------------|
A|-----------------------------------------|---------------------|
E|-----------------------------------------|---------------------|

(6x)
e|-----12-15-12---19p15-------17p14-------21p17-------22^-22^--|
B|--15------------------17----------15----------17-------------|
G|-------------------------------------------------------------|
D|-------------------------------------------------------------|
A|-------------------------------------------------------------|
E|-------------------------------------------------------------|


************************************

| b  Bend
| p  Pull-off
| \  Slide down
| h  Hammer-on
| /  Slide up
| ~  Vibrato

************************************
Suggest correction
comments
print report bad tab
23 comments total. Showing first comments.
+1 reply
guitardude72565 30 Apr 15, 2003 12:00 AM

great solo dude

0 reply
metallicarulz89 10 Jun 20, 2004 12:00 AM

what does this meen ^?

0 reply
strumntheguitar 140 Jul 04, 2004 12:00 AM

^ means bend. i love this solo, i dunno how you figured out all of this stuff, but i'm glad you did. 5 stars

guest
You may want to rate the tab now too:
select rating
Wanna post a correction for this tab? Suggest correction