Oops, an error
Loading. Please wait.
We have an official The Four Horsemen tab made by UG professional guitarists. Check out the tab »
×

The Four Horsemen bass

version 3
version 3

Whole song

  • I found Ver 1 difficult to follow with it referenc... Show more
409 views 6 this week
no commentswrite comment
1 2 3 4 5
3 more votes to show rating
add to favorites
×
Save as Personal and add changes to this tab that will be seen only by you. Learn more ›
×
You can save this tab as Personal to edit and correct it or add notes. All changes will be seen only by you. Learn more »
launch autoscroll
font size
0
reset
guitar tuner
backing track
0:00
0:00
edit
Autoscroll
slow
fast
+/-
esc
set tempo
stop
Author
About this tab version
I found Ver 1 difficult to follow with it referencing various figures throughout so I wrote it out in full for myself to learn it easier, thought it might help out other people. Was this info helpful? Yes No
All credit, and any ratings, for this tab should go to contributor of Ver 1 - I just put it into a more
readable structure.

-----------------------------------------------------------------------------
                      THE FOUR HORSEMEN
-----------------------------------------------------------------------------

Intro                                              
|---------|-------|---|---|---------|---|---|-----------|
|---------|o----R-|-R-|-R-|---------|---|---|----------o|
|-3---5-3-|o--7---|---|---|-R---R---|-R-|-R-|-3---5-3--o|
|---3-----|-------|---|---|---0---0-|---|---|---3-------|
  q q q q     q h.  w   w   q q q q   w   w   q q q q

|-----------------|-------------|-----------------|-------------|
|-----------------|-------------|-----------------|-------------|
|-------7-------7-|-------7-5-5-|-------7-------7-|-------7-3-5-|
|-0-0-0---0-0-0---|-0-0-0-------|-0-0-0---0-0-0---|-0-0-0-------|
  e e e q e e e q   e e e q q q   e e e q e e e q   e e e q q q
  [ 3 ]   [ 3 ]     [ 3 ]         [ 3 ]   [ 3 ]     [ 3 ]

|-----------------|-------------|---------|
|-----------------|---------5---|---------|
|-------7-------7-|-------7---7-|-3---5-3-|
|-0-0-0---0-0-0---|-0-0-0-------|---3-----|
  e e e q e e e q   e e e q q q   q q q q
  [ 3 ]   [ 3 ]     [ 3 ]

Verse 1
|------------------|-------------|-----------------|-------------|
|o-----------------|-------------|-----------------|-------------|
|o-------7-------7-|-------7-5-5-|-------7-------7-|-------7-3-5-|
|--0-0-0---0-0-0---|-0-0-0-------|-0-0-0---0-0-0---|-0-0-0-------|
   e e e q e e e q   e e e q q q   e e e q e e e q   e e e q q q
   [ 3 ]   [ 3 ]     [ 3 ]         [ 3 ]   [ 3 ]     [ 3 ]

|-----------------|-------------|----------|
|-----------------|---------5---|---------o|
|-------7-------7-|-------7---7-|-3---5-3-o|
|-0-0-0---0-0-0---|-0-0-0-------|---3------|
  e e e q e e e q   e e e q q q   q q q q
  [ 3 ]   [ 3 ]     [ 3 ]

Chorus
|----------------|-----------------|
|----------------|-----------------|
|--7-7-7-7-0-7-0-|-7-0-7-0-7-0-7-0-|
|----------------|-----------------|
   q e e e e e e   e e e e e e e e

|-----------------|-----------------|-----------------|-----------------|
|-----------------|-----------------|-----------------|-----------------|
|-5-5-5-5-5-0-5-0-|-5-0-5-0-5-0-5-0-|-3-3-3-0-3-0-3-0-|-3-0-3-0-3-0-3-0-|
|-----------------|-----------------|-----------------|-----------------|
  e e e e e e e e   e e e e e e e e   e e e e e e e e   e e e e e e e e

|---------|--------------|---------------|-----------------|
|---------|------7-7-8-9-|---------------|-----------------|
|-2-3-5-7-|-9-10---------|-7-7-0-7-0-7-0-|-7-0-7-0-7-0-7-0-|
|---------|--------------|---------------|-----------------|
  q q q q   q q  q e e e   q e e e e e e   e e e e e e e e
                   [ 3 ]
   
|-----------------|-----------------|-----------------|----------|
|-----------------|-----------------|-----------------|----------|
|-5-5-5-0-5-0-5-0-|-5-0-5-0-5-0-5-0-|-3-3-3-0-3-0-3-0-|-2-3-2----|
|-----------------|-----------------|-----------------|-------3--|
  e e e e e e e e   e e e e e e e e   e e e e e e e e   q q q q

|------------------|-----------------|-----------------|-------------------|
|o-----------------|-----------------|-----------------|-----------7-5-----|
|o-7-5-7-5-7-5-7-5-|-7-5-7-5-7-5---5-|-7-5-7-5-7-5-7-5-|-----5-7-5-----7-5-|
|------------------|-------------7---|-----------------|-6-7---------------|
   e e e e e e e e   e e e e e e e e   e e e e e e e e   e e e e e e e e e
                                                         [ 3 ]
|-----------------|-----------------|----------|
|-----------------|-----------------|---------o|
|-7-5-7-5-7-5-7-5-|-7-5-7-5-7-5-----|-3---5-3-o|
|-----------------|-------------7-5-|---3------|
  e e e e e e e e   e e e e e e e e   q q q q

Verse 2
|------------------|-------------|-----------------|-------------|
|o-----------------|-------------|-----------------|-------------|
|o-------7-------7-|-------7-5-5-|-------7-------7-|-------7-3-5-|
|--0-0-0---0-0-0---|-0-0-0-------|-0-0-0---0-0-0---|-0-0-0-------|
   e e e q e e e q   e e e q q q   e e e q e e e q   e e e q q q
    [ 3 ]   [ 3 ]     [ 3 ]         [ 3 ]   [ 3 ]     [ 3 ]

|-----------------|-------------|----------|
|-----------------|---------5---|---------o|
|-------7-------7-|-------7---7-|-3---5-3-o|
|-0-0-0---0-0-0---|-0-0-0-------|---3------|
  e e e q e e e q   e e e q q q   q q q q
  [ 3 ]   [ 3 ]     [ 3 ]

Chorus
|----------------|-----------------|
|----------------|-----------------|
|--7-7-7-7-0-7-0-|-7-0-7-0-7-0-7-0-|
|----------------|-----------------|
   q e e e e e e   e e e e e e e e

|-----------------|-----------------|-----------------|-----------------|
|-----------------|-----------------|-----------------|-----------------|
|-5-5-5-5-5-0-5-0-|-5-0-5-0-5-0-5-0-|-3-3-3-0-3-0-3-0-|-3-0-3-0-3-0-3-0-|
|-----------------|-----------------|-----------------|-----------------|
  e e e e e e e e   e e e e e e e e   e e e e e e e e   e e e e e e e e

|---------|--------------|---------------|-----------------|
|---------|------7-7-8-9-|---------------|-----------------|
|-2-3-5-7-|-9-10---------|-7-7-0-7-0-7-0-|-7-0-7-0-7-0-7-0-|
|---------|--------------|---------------|-----------------|
  q q q q   q q  q e e e   q e e e e e e   e e e e e e e e
                   [ 3 ]
     
|-----------------|-----------------|-----------------|----------|
|-----------------|-7-------7---7---|-----------------|----------|
|-5-5-5-0-5-0-5-0-|---5-5-5---5---5-|-3-3-3-0-3-0-3-0-|-2-3-2----|
|-----------------|-----------------|-----------------|-------3--|
  e e e e e e e e   e e e e e e e e   e e e e e e e e   q q q q

|------------------|-----------------|-----------------|-------------------|
|o-----------------|-----------------|-----------------|-----------7-5-----|
|o-7-5-7-5-7-5-7-5-|-7-5-7-5-7-5---5-|-7-5-7-5-7-5-7-5-|-----5-7-5-----7-5-|
|------------------|-------------7---|-----------------|-6-7---------------|
   e e e e e e e e   e e e e e e e e   e e e e e e e e   e e e e e e e e e
                                                         [ 3 ]
|-----------------|-----------------|----------|
|-----------------|-----------------|---------o|
|-7-5-7-5-7-5-7-5-|-7-5-7-5-7-5-----|-3---5-3-o|
|-----------------|-------------7-5-|---3------|
  e e e e e e e e   e e e e e e e e   q q q q

|---||-----|  6  |-----------||-----------------------|
|---||-----|-----|-R-R-------||o----------------------|
|-7-||---R-|-----|-----8p7-7-||o--7---------7---------|
|-0-||-0---|     |-----------||-----0-0-0-0---0-0-0-0-|
  w    e h..       q e e q q      e e e e e e e e e e
                                    [ 3 ]       [ 3 ]

                                                   Repeat x4
|------------------|---------------------|-----------------|
|------------------|---------------------|----------------o|
|-7---------8\7--7-|-7---------7---------|-7---------8-8--o|
|---0-0-0-0--------|---0-0-0-0---0-0-0-0-|---0-0-0-0-------|
  e e e e e s e. q   e e e e e e e e e e   e e e e e q q
      [ 3 ]              [ 3 ]     [ 3 ]       [ 3 ]

|-9-7---7-----------------|-/9-7---7-----|---R-----------|
|-----9---9-8-7-5-7---5-7-|------9---9-8-|-7-----R---R---|
|-------------------7-----|--------------|-----3---4---5-|
|-------------------------|--------------|---------------|
  e e e e e e e e e e e e    e e e e e e   q e e e e e e
  [ 3 ] [ 3 ] [ 3 ] [ 3 ]    [ 3 ] [ 3 ]

Bridge                         Repeat x8
|-------------------|-------------------|
|o------------------|------------------o|
|o----------8-7-5-7-|-------3---4---5--o|
|---0-0-5-7---------|-0-0-0---0---0-----|
    e e e e e e e e   e e e e e e e e

                               Repeat x8
|-------------------|-------------------|
|-o-----------------|-----------------o-|
|-o-----------------|-------3---4---5-o-|
|---0-0-0-0-0-0-0-0-|-0-0-0---0---0-----|
    e e e e e e e e   e e e e e e e e

|-9-7---7-----------------|-9-7---7------------------|
|-----9---9-8-7-5-7---5-7-|-----9---9-8-7-5-7---5-7--|
|-------------------7-----|-------------------7------|
|-------------------------|--------------------------|
  e e e e e e e e e e e e   e e e e e e e e e e e e
  [ 3 ] [ 3 ] [ 3 ] [ 3 ]   [ 3 ] [ 3 ] [ 3 ] [ 3 ]   

|-------------------------|----------------------|-------------------------|
|-------------------------|----------------------|-------------------------|
|-----7-7-7-7-5-5-5-5-7-5-|-3-3-3-3-3-0-2-2-2-9\-|-------------------------|
|-0-0---------------------|----------------------|-0-0-0-0-0-0-2-2-3-2-0-2-|
  e e s s s s e e s s s s   e e s s s s e e e e    e e s s s s e e s s s s

|---------------------------|--------------------------|
|---------------------------|--------------------------|
|-----------R-------------5-|-7-7-7-7-7/9-9-9-9-9-9/10-|
|-3-3-3-3-3---7-7-7-7-7-7---|--------------------------|
  e e s s s s s s s s s s e   e e s s s s e e s s s s

|----------------------------------|-------------------------------------|
|----------------------------12----|-14-14-14-14-14-14-16-16-16-16-16-16-|
|-10-10-10-10-10/14-14-14-14----14-|-------------------------------------|
|----------------------------------|-------------------------------------|
  e  e  s  s  s  s  s  s  e  e  e    e  e  s  s  s  s  e  e  s  s  s  s

|-----------------------------------------|
|-17-17-17-17-17/21-21-21-21-21-21-21-21\-|
|-----------------------------------------|
|-----------------------------------------|
  e  e  s  s  s  s  s  s  s  s  s  s  e

Guitar solo I
|-----------------------|---------------------|--------------------|
|-------4-5---------4-5-|---------4-5---------|--------------------|
|-----7-----5-5-5-7-----|-3-3-5-7-----2-2-2-2-|-7----7-5-5-7-5-0-5-|
|-0-0-------------------|---------------------|-0--0---------------|
  e e e s s e e s s s s   e e s s s s e e e e   e. s q e e s s s s

|-----------------------|-------------------------|
|-----------------5-4-2-|-2-2-2-2-0-2-4-4-4-4-0-4-|
|-3-3-5-3-0-3-2-2-------|-------------------------|
|-----------------------|-------------------------|
  e e s s s s e e s s e   e e s s s s e e s s s s

|--------------------------|----------------------------|
|-5-5-5-4-2-0--------------|----------------------------|
|-------------2-2-0-2-0-2/-|-/7-----7-7-7-7-5-5-7-5-0-5-|
|--------------------------|--0-0-0---------------------|
  e e s s s s e s s s s e     e s s s s s s e e s s s s

|-----------------------------|---------------------------|
|-----5-4-2-------------------|-2---2-0-2-4-2-4-2-4-2-4-0-|
|-3-3-------5-3-5-3-2-3-2-----|---------------------------|
|-------------------------3-2-|---0-----------------------|
  e e s s s s s s s s s s s s   e e e s s s s s s s s s s

|-------------------------|-----------------------------|
|-------------------------|-----------------------------|
|-3-3-3-5-3-0-3-2-2-2-----|-------7-7-7-7-9-9-9-9-9-9-7-|
|---------------------3-2-|-0-0-0-----------------------|
  e s s s s s s e s s e e   e s s s s s s e s s s s s s

|-----------------------|-------------------------|-------------------------|
|-----5-------------5---|-----------------5-7-----|-----------5-7-----------|
|-3-3---3-0-3-2-2-2---7-|-7---7-7-7-7-5-5-----7-5-|-3-3-3-5-7-----2-2-2-2-2-|
|-----------------------|-0-0---------------------|-------------------------|
  e e s s s s s s e e e   e e s s s s e e s s s s   s s e s s s s s s e e e

                          2/4         4/4
|-------------------------|-----------|-----------------|-----|
|---------------------7---|-----------|-----------------|---R-|
|-7---7-7-7-7-5-5-7-5---5-|-3-3-5-3-5-|-2-3-2-3-2-3-2-3-|-2---|
|---0---------------------|-----------|-----------------|-----|
  e e s s s s e e s s s s   e e s s e   e e e e e e e e   q h

|-----------------------|
|o----------------------|
|o--7---------7---------|
|-----0-0-0-0---0-0-0-0-|
    e e e e e e e e e e
      [ 3 ]       [ 3 ]
                                                   Repeat x4
|------------------|---------------------|-----------------|
|------------------|---------------------|----------------o|
|-7---------8\7--7-|-7---------7---------|-7---------8-8--o|
|---0-0-0-0--------|---0-0-0-0---0-0-0-0-|---0-0-0-0-------|
  e e e e e s e. q   e e e e e e e e e e   e e e e e q q
      [ 3 ]              [ 3 ]     [ 3 ]       [ 3 ]

|-9-7---7-----------------|-9-7---7------------------|
|-----9---9-8-7-5-7---5-7-|-----9---9-8-7-5-7---5-7--|
|-------------------7-----|-------------------7------|
|-------------------------|--------------------------|
  e e e e e e e e e e e e   e e e e e e e e e e e e
  [ 3 ] [ 3 ] [ 3 ] [ 3 ]   [ 3 ] [ 3 ] [ 3 ] [ 3 ]
   

|------|---|---|---------|---|---|---------|---------|---------|---------|
|------|---|---|---------|---|---|---------|---------|---------|---------|
|---R--|-R-|-R-|-R---R---|-R-|-R-|-3---5-3-|---R---R-|---R---R-|---R---R-|
|-0----|---|---|---0---0-|---|---|---3-----|-0---0---|-0---0---|-0---0---|
  e h..  w   w   q q q q   w   w   q q q q   q q q q   q q q q   q q q q

|---------|---------|---------|---------||
|---------|---------|---------|---------||
|---R---R-|---R---R-|---R---R-|-3---5-3-||
|-0---0---|-0---0---|-0---0---|---3-----||
  q q q q   q q q q   q q q q   q q q q

Verse 3
|------------------|-------------|-----------------|-------------|
|o-----------------|-------------|-----------------|-------------|
|o-------7-------7-|-------7-5-5-|-------7-------7-|-------7-3-5-|
|--0-0-0---0-0-0---|-0-0-0-------|-0-0-0---0-0-0---|-0-0-0-------|
   e e e q e e e q   e e e q q q   e e e q e e e q   e e e q q q
    [ 3 ]   [ 3 ]     [ 3 ]         [ 3 ]   [ 3 ]     [ 3 ]

|-----------------|-------------|----------|
|-----------------|---------5---|---------o|
|-------7-------7-|-------7---7-|-3---5-3-o|
|-0-0-0---0-0-0---|-0-0-0-------|---3------|
  e e e q e e e q   e e e q q q   q q q q
  [ 3 ]   [ 3 ]     [ 3 ]

Chorus
|----------------|-----------------|
|----------------|-----------------|
|--7-7-7-7-0-7-0-|-7-0-7-0-7-0-7-0-|
|----------------|-----------------|
   q e e e e e e   e e e e e e e e

|-----------------|-----------------|-----------------|-----------------|
|-----------------|-----------------|-----------------|-----------------|
|-5-5-5-5-5-0-5-0-|-5-0-5-0-5-0-5-0-|-3-3-3-0-3-0-3-0-|-3-0-3-0-3-0-3-0-|
|-----------------|-----------------|-----------------|-----------------|
  e e e e e e e e   e e e e e e e e   e e e e e e e e   e e e e e e e e

|---------|--------------|---------------|-----------------|
|---------|------7-7-8-9-|---------------|-----------------|
|-2-3-5-7-|-9-10---------|-7-7-0-7-0-7-0-|-7-0-7-0-7-0-7-0-|
|---------|--------------|---------------|-----------------|
  q q q q   q q  q e e e   q e e e e e e   e e e e e e e e
                   [ 3 ]

|-----------------|-----------------|-----------------|----------|
|-----------------|-7-------7---7---|-----------------|----------|
|-5-5-5-0-5-0-5-0-|---5-5-5---5---5-|-3-3-3-0-3-0-3-0-|-2-3-2----|
|-----------------|-----------------|-----------------|-------3--|
  e e e e e e e e   e e e e e e e e   e e e e e e e e   q q q q

|------------------|-----------------|-----------------|-------------------|
|o-----------------|-----------------|-----------------|-----------7-5-----|
|o-7-5-7-5-7-5-7-5-|-7-5-7-5-7-5---5-|-7-5-7-5-7-5-7-5-|-----5-7-5-----7-5-|
|------------------|-------------7---|-----------------|-6-7---------------|
   e e e e e e e e   e e e e e e e e   e e e e e e e e   e e e e e e e e e
                                                         [ 3 ]
|-----------------|-----------------|----------|
|-----------------|-----------------|---------o|
|-7-5-7-5-7-5-7-5-|-7-5-7-5-7-5-----|-3---5-3-o|
|-----------------|-------------7-5-|---3------|
  e e e e e e e e   e e e e e e e e   q q q q

|---|-----------------------|
|-R-|o----------------------|
|---|o--7---------7---------|
|---|-----0-0-0-0---0-0-0-0-|
  W     e e e e e e e e e e
          [ 3 ]       [ 3 ]
                                                   Repeat x4
|------------------|---------------------|-----------------|
|------------------|---------------------|----------------o|
|-7---------8\7--7-|-7---------7---------|-7---------8-8--o|
|---0-0-0-0--------|---0-0-0-0---0-0-0-0-|---0-0-0-0-------|
  e e e e e s e. q   e e e e e e e e e e   e e e e e q q
      [ 3 ]              [ 3 ]     [ 3 ]       [ 3 ]

Guitar solo II
|-----------------------|
|o----------------------|
|o--7---------7---------|
|-----0-0-0-0---0-0-0-0-|
    e e e e e e e e e e
      [ 3 ]       [ 3 ]
                                                   Repeat x8
|------------------|---------------------|-----------------|
|------------------|---------------------|----------------o|
|-7---------8\7--7-|-7---------7---------|-7---------8-8--o|
|---0-0-0-0--------|---0-0-0-0---0-0-0-0-|---0-0-0-0-------|
  e e e e e s e. q   e e e e e e e e e e   e e e e e q q
      [ 3 ]              [ 3 ]     [ 3 ]       [ 3 ]

|------------------|-----------------|-----------------|-------------------|
|------------------|-----------------|-----------------|-----------7-5-----|
|--7-5-7-5-7-5-7-5-|-7-5-7-5-7-5---5-|-7-5-7-5-7-5-7-5-|-----5-7-5-----7-5-|
|------------------|-------------7---|-----------------|-6-7---------------|
   e e e e e e e e   e e e e e e e e   e e e e e e e e   e e e e e e e e e
                                                         [ 3 ]
|-----------------|-----------------|----------|-----||
|-----------------|-----------------|----------|-----||
|-7-5-7-5-7-5-7-5-|-7-5-7-5-7-5-----|-3---5-3--|---R-||
|-----------------|-------------7-5-|---3------|-0---||
  e e e e e e e e   e e e e e e e e   q q q q    q h
Suggest correction
Creating personal tab
Creating personal tab
You can edit any tab online and save it as your Personal.

You can edit, replace or remove any tab part or add personal notes – all changes will be seen only by you.

Personal tabs can be accessed anytime from any device, even offline.
Learn more »
Give kudos to tab author, rate the tab!
1 2 3 4 5
comments
print report bad tab
guest
You may want to rate the tab now too:
select rating
Wanna post a correction for this tab? Suggest correction