Oops, an error
Loading. Please wait.

The Four Horsemen Tab

version 3
11,488 views 1 this week
7 commentsread comments
1 2 3 4 5
worth learning
x 8
add to favorites
launch autoscroll
font size
0
reset
how to read this tab
guitar tuner
Autoscroll
slow
fast
+/-
esc
set tempo
stop
Help us to improve Ultimate-Guitar.com Take our survey!
×
Hey this is the tab for The Four Horsemen easy song besides the solo its all in order
and everything....just no solo







E|-----------||-------------------------------------------------|----------|
B|-----------||-------------------------------------------------|----------|
G|-----------||-------------------------------------------------|----------|
D|--5---7-5--||-------------------------------------------------|-----5h7--|
A|--3-5-5-3--||-5h7-5h7-5h7-5h7-5h7-5h7-5h7----5h7-5h7-5h7-5h7--|--5h7-----|
E|----3------||-0---0---0---0---0---0---0---7-6-----0---0---0---|7-6-------|

E|-------------------------------------||-------------|
B|-------------------------------------||-------------|
G|-------------------------------------||-------------|
D|-------------------------------------||--5---7-5----|
A|--5h7-5h7-5h7-----5h7-5h7-5h7-5h7----||--3-5-5-3----|
E|--0---0---0---7-6-0---0---0---0------||----3--------|

E|--------------------------------------------------||-------------|
B|--------------------------------------------------||-------------|
G|--------------------------------------------------||-------------|
D|--------------------------------------------------||--------5h7--|
A|--5h7-5h7-5h7-5h7-5h7-5h7-5h7-----5h7-5h7-5h7-5h7-||----5h7------|
E|--0---0---0---0---0---0---0---7-6-0---0---0---0---||7-6----------|

E|-------------------------------------||-------------|
B|-------------------------------------||-------------|
G|-------------------------------------||-------------|
D|-------------------------------------||--5---7-5----|
A|--5h7-5h7-5h7-----5h7-5h7-5h7-5h7----||--3-5-5-3----|
E|--0---0---0---7-6-0---0---0---0------||----3--------|


E|---------------------------||-------||-------||------||----------| 3x
B|---------------------------||-------||-------||------||----------|
G|---------------------------||-------||-------||------||----------|
D|--------9-------9-------9--||--7-7--||--5-7--||--12-9||-5---7-5--|
A|--------7-------7-------7--||--5-5--||--3-5--||--10-7||-3-5-5-3--|
E|--0-0-0---0-0-0---0-0-0----||-------||-------||------||---3------|

E|--------------------------------------|
B|--------------------------------------|
G|--------------------------------------|
D|--9-9-7-7-5-5-4------9-9-7-7-4-5-4-5--|
A|--7-7-5-5-3-3-2--PS--7-7-5-5-2-3-2-3--|
E|-----------------PS-------------------|
PS-PICK SLIDE                  . . . .

E|---------------------------------------------------------------| 
B|---------------------------------------------------------------|
G|---------------------------------------------------------------|
D|----------------------------------------------------------5h7--|
A|--5h7-5h7-5h7-5h7-5h7-5h7-5h7-----5h7-5h7-5h7-5h7-----5h7------|
E|--0---0---0---0---0---0---0---7-6-0---0---0---0---7-6----------|

E|-------------------------------------||-------------|
B|-------------------------------------||-------------|
G|-------------------------------------||-------------|
D|-------------------------------------||--5---7-5----|
A|--5h7-5h7-5h7-----5h7-5h7-5h7-5h7----||--3-5-5-3----|
E|--0---0---0---7-6-0---0---0---0------||----3--------|

E|---------------------------------------------------------------| 
B|---------------------------------------------------------------|
G|---------------------------------------------------------------|
D|----------------------------------------------------------5h7--|
A|--5h7-5h7-5h7-5h7-5h7-5h7-5h7-----5h7-5h7-5h7-5h7-----5h7------|
E|--0---0---0---0---0---0---0---7-6-0---0---0---0---7-6----------|

E|-------------------------------------||-------------|
B|-------------------------------------||-------------|
G|-------------------------------------||-------------|
D|-------------------------------------||--5---7-5----|
A|--5h7-5h7-5h7-----5h7-5h7-5h7-5h7----||--3-5-5-3----|
E|--0---0---0---7-6-0---0---0---0------||----3--------|1:17




E|---------------------------||-------||-------||------||----------| 2x
B|---------------------------||-------||-------||------||----------|
G|---------------------------||-------||-------||------||----------|
D|--------9-------9-------9--||--7-7--||--5-7--||--12-9||-5---7-5--|
A|--------7-------7-------7--||--5-5--||--3-5--||--10-7||-3-5-5-3--|
E|--0-0-0---0-0-0---0-0-0----||-------||-------||------||---3------|

E|--------------------------------------| 2x
B|--------------------------------------|
G|--------------------------------------|
D|--9-9-7-7-5-5-4------9-9-7-7-4-5-4-5--|
A|--7-7-5-5-3-3-2--PS--7-7-5-5-2-3-2-3--|
E|-----------------PS-------------------|
PS-PICK SLIDE                  . . . .

E|-----------||-----------------------------------------------------------| 
B|-----------||-----------------------------------------------------------|
G|-----------||-----------------------------------------------------------|
D|--5---7-5--||-------------------------------------------------------5h7-|
A|--3-5-5-3--||--5h7-5h7-5h7-5h7-5h7-5h7-5h7-----5h7-5h7-5h7-5h7---5h7----|
E|----3------||--0---0---0---0---0---0---0---7-6-0---0---0---0---7-6------|

E|-------------------------------------||-------------|
B|-------------------------------------||-------------|
G|-------------------------------------||-------------|
D|-------------------------------------||--5---7-5----|
A|--5h7-5h7-5h7-----5h7-5h7-5h7-5h7----||--3-5-5-3----|
E|--0---0---0---7-6-0---0---0---0------||----3--------|

E|---------------------------------------------------------------| 
B|---------------------------------------------------------------|
G|---------------------------------------------------------------|
D|----------------------------------------------------------5h7--|
A|--5h7-5h7-5h7-5h7-5h7-5h7-5h7-----5h7-5h7-5h7-5h7-----5h7------|
E|--0---0---0---0---0---0---0---7-6-0---0---0---0---7-6----------|

E|-------------------------------------||-------------|
B|-------------------------------------||-------------|
G|-------------------------------------||-------------|
D|-------------------------------------||--5---7-5----| let ring
A|--5h7-5h7-5h7-----5h7-5h7-5h7-5h7----||--3-5-5-3----|
E|--0---0---0---7-6-0---0---0---0------||----3--------|2:07




E|---------------------||----------------------------------| 4x
B|---------------------||----------------------------------|
G|---------------------||----------------------------------|
D|---------------------||--10/9---------------------10-10--|
A|---------------------||---8/7----------------------8--8--|
E|--0-0-0-0-0-0-0-0-0-0||---------0-0-0-0-0-0-0-0-0--------|2:35
      \buncha times/


SOLO:???




E|--------------------------------------------------| 4x
B|--------------------------------------------------|
G|--------------------------------------------------|
D|------------------------10/9---------------10-10--|
A|-------------------------8/7----------------8--8--|
E|--0-0-0-0-0-0-0-0-0-0----------0-0-0-0-0-0--------|

rythym for solo:???

E|---------------------------------------------------------------|  5:00
B|---------------------------------------------------------------|
G|---------------------------------------------------------------|
D|----------------------------------------------------------5h7--|
A|--5h7-5h7-5h7-5h7-5h7-5h7-5h7-----5h7-5h7-5h7-5h7-----5h7------|
E|--0---0---0---0---0---0---0---7-6-0---0---0---0---7-6----------|

E|-------------------------------------||-------------|
B|-------------------------------------||-------------|
G|-------------------------------------||-------------|
D|-------------------------------------||--5---7-5----|
A|--5h7-5h7-5h7-----5h7-5h7-5h7-5h7----||--3-5-5-3----|
E|--0---0---0---7-6-0---0---0---0------||----3--------|

E|---------------------------------------------------------------| 
B|---------------------------------------------------------------|
G|---------------------------------------------------------------|
D|----------------------------------------------------------5h7--|
A|--5h7-5h7-5h7-5h7-5h7-5h7-5h7-----5h7-5h7-5h7-5h7-----5h7------|
E|--0---0---0---0---0---0---0---7-6-0---0---0---0---7-6----------|

E|-------------------------------------||-------------|
B|-------------------------------------||-------------|
G|-------------------------------------||-------------|
D|-------------------------------------||--5---7-5----|
A|--5h7-5h7-5h7-----5h7-5h7-5h7-5h7----||--3-5-5-3----|
E|--0---0---0---7-6-0---0---0---0------||----3--------|5:16




E|---------------------------||-------||-------||------||----------| 2x
B|---------------------------||-------||-------||------||----------|
G|---------------------------||-------||-------||------||----------|
D|--------9-------9-------9--||--7-7--||--5-7--||--12-9||-5---7-5--|
A|--------7-------7-------7--||--5-5--||--3-5--||--10-7||-3-5-5-3--|
E|--0-0-0---0-0-0---0-0-0----||-------||-------||------||---3------|

E|--------------------------------------| 2x
B|--------------------------------------|
G|--------------------------------------|
D|--9-9-7-7-5-5-4------9-9-7-7-4-5-4-5--|
A|--7-7-5-5-3-3-2--PS--7-7-5-5-2-3-2-3--|
E|-----------------PS-------------------|5:48
PS-PICK SLIDE                  . . . .

E|-----------||------------------------------------------------------------|
B|-----------||------------------------------------------------------------|
G|-----------||------------------------------------------------------------|
D|--5---7-5--||-------------------------------------------------------5h7--|
A|--3-5-5-3--||--5h7-5h7-5h7-5h7-5h7-5h7-5h7-----5h7-5h7-5h7-5h7----5h7----|
E|----3------||--0---0---0---0---0---0---0---7-6-0---0---0---0---7-6-------|

E|-------------------------------------||-------------|
B|-------------------------------------||-------------|
G|-------------------------------------||-------------|
D|-------------------------------------||--5---7-5----|
A|--5h7-5h7-5h7-----5h7-5h7-5h7-5h7----||--3-5-5-3----|
E|--0---0---0---7-6-0---0---0---0------||----3--------|

E|---------------------------------------------------------------| 
B|---------------------------------------------------------------|
G|---------------------------------------------------------------|
D|----------------------------------------------------------5h7--|
A|--5h7-5h7-5h7-5h7-5h7-5h7-5h7-----5h7-5h7-5h7-5h7-----5h7------|
E|--0---0---0---0---0---0---0---7-6-0---0---0---0---7-6----------|

E|-------------------------------------||-------------|
B|-------------------------------------||-------------|
G|-------------------------------------||-------------|
D|-------------------------------------||--5---7-5----|
A|--5h7-5h7-5h7-----5h7-5h7-5h7-5h7----||--3-5-5-3----|
E|--0---0---0---7-6-0---0---0---0------||----3--------|



E|---------------------||---------------------------------| 12x
B|---------------------||---------------------------------|
G|---------------------||---------------------------------|
D|---------------------||--10/9--------------------10-10--|
A|---------------------||---8/7---------------------8--8--|
E|--0-0-0-0-0-0-0-0-0-0||---------0-0-0-0-0-0-0-0-0-------|7:02



E|---------------------------------------------------------------|---------|
B|---------------------------------------------------------------|---------|
G|---------------------------------------------------------------|---------|
D|---------------------------------------------------------5h7---|5---7-5--|
A|--5h7-5h7-5h7-5h7-5h7-5h7-5h7-----5h7-5h7-5h7-5h7-----5h7------|3-5-5-3--|
E|--0---0---0---0---0---0---0---7-6-0---0---0---0---7-6----------|----3----|

Thanks...this is my first tab email for any questions or comments:
mitchfennell2002@yahoo.ca
Suggest correction
comments
print report bad tab
7 comments total. Showing first comments.
-1 reply
Preszombie 70 wrote on July 21 2004, 12:00 am

Actually the solo isn't the only part you left out. You left out the entire interlude of the song dude.

-1 reply
Legend88 10 wrote on July 21 2004, 12:00 am

We have all seen this stuff before...dont beleive I see anything new really...

-1 reply
TenTonHammer 210 wrote on July 21 2004, 12:00 am

looks very familiar.... some parts are incorrect... and it's missing a lot more than just the solo...

guest
You may want to rate the tab now too:
select rating
Please do not post tabs as comments. Select "correction" instead!