Oops, an error
Loading. Please wait.

The God That Failed Bass

version 1
version 1

Whole song

Interactive

38,080 views 24 this week
2 commentsread comments
1 2 3 4 5
x 17
add to favorites
×
Save as Personal and add changes to this tab that will be seen only by you. Learn more ›
×
You can save this tab as Personal to edit and correct it or add notes. All changes will be seen only by you. Learn more »
save as personal
new!
launch autoscroll
font size
0
reset
guitar tuner
backing track
0:00
0:00
Autoscroll
slow
fast
+/-
esc
set tempo
stop
Author
Standard Tuning (EADG)

[Intro]
G|------------------------------------------|
D|------------------------------------------|
A|------------------------------------------|
E|3-3-0-0-0-7-0-0-0-0-3-0-0-7-0-0-3-0-0-5-0-|

G|------------------------------------------|
D|------------------------------------------|
A|----------5-5-7---------------------------|
E|3-3-0-0-0-------0-0-3-0-0-7-0-0-3-0-0-5-0-|

[Verse]
G|--------------------------------------------------------|
D|--------------------------------------------------------|
A|--------------------------------------------------------|
E|1-0-0-0--1-0-0-0--1-0-0-3-0-1-0-0-0--1-0-0-0--1-0-0-3-0-|

G|-------------------------------------------------------------------------|
D|-------------------------------------------------------------------------|
A|-------------------------------------------------------------------------|
E|1-1-1-1--0-1-1-1--0-1-1-0-3-0-1-1-1--0-1-1-1--0-1-1-1--0-1-1-0-3-0-1-1-1-|

[Chorus]
G|------------------|--------------------------------------------------|
D|------------------|--------------------------------------------------|
A|------------------|--------------------------------------------------|
E|3-3-0-0-0-7-0-0-0-|-0-0--0-0-0--0-0-0--3--3--3--3--7-7--7-7-7--7-7-7-|

G|-------------------------------------------------------------------------|
D|-------------------------------------------------------------------------|
A|-------------------------------------------------------------------------|
E|3--3--3--3--0-0--0-0-0--0-0-0--3--3--3--3--7-7--7-7-7--7-7-7--3--3--3--3-|

That should be enough for you to get the general idea of the song ...
Any questions or anything then email me at dumbwench_@hotmail.com.
Cheers.
Suggest correction
comments
print report bad tab
2 comments total.
0 reply
METSOAD 1,622 Sep 21, 2006 11:01 PM

Eb moron

-1 reply
Blood Hawk 70 Oct 01, 2006 08:35 AM

/\
And this is coming from the guy that thought Leper Messiah was about a freakshow

guest
You may want to rate the tab now too:
select rating
Wanna post a correction for this tab? Suggest correction