Oops, an error
Loading. Please wait.

The God That Failed Bass Tab

version 1
version 1

Whole song

Interactive

36,223 views 90 this week
2 commentsread comments
1 2 3 4 5
accurate
x 17
add to favorites
launch autoscroll
font size
0
reset
guitar tuner
Autoscroll
slow
fast
+/-
esc
set tempo
stop
Help us to improve Ultimate-Guitar.com Take our survey!
×
Author
Standard Tuning (EADG)

Intro
-----------------------------------------
-----------------------------------------
-----------------------------------------
3-3-0-0-0-7-0-0-0-0-3-0-0-7-0-0-3-0-0-5-0

-----------------------------------------
-----------------------------------------
----------5-5-7--------------------------
3-3-0-0-0-------0-0-3-0-0-7-0-0-3-0-0-5-0

Verse
-------------------------------------------------------
-------------------------------------------------------
-------------------------------------------------------
1-0-0-0--1-0-0-0--1-0-0-3-0-1-0-0-0--1-0-0-0--1-0-0-3-0

------------------------------------------------------------------------
------------------------------------------------------------------------
------------------------------------------------------------------------
1-1-1-1--0-1-1-1--0-1-1-0-3-0-1-1-1--0-1-1-1--0-1-1-1--0-1-1-0-3-0-1-1-1

Chorus
-----------------   ------------------------------------------------
-----------------   ------------------------------------------------
-----------------   ------------------------------------------------
3-3-0-0-0-7-0-0-0   0-0--0-0-0--0-0-0--3--3--3--3--7-7--7-7-7--7-7-7

------------------------------------------------------------------------
------------------------------------------------------------------------
------------------------------------------------------------------------
3--3--3--3--0-0--0-0-0--0-0-0--3--3--3--3--7-7--7-7-7--7-7-7--3--3--3--3

That should be enough for you to get the general idea of the song ...
Any questions or anything then email me at dumbwench_@hotmail.com.
Cheers.
Suggest correction
comments
print report bad tab
2 comments total.
0 reply
METSOAD 1,622 wrote on September 22 2006, 03:01 am

Eb moron

-1 reply
Blood Hawk 70 wrote on October 1 2006, 12:35 pm

/\
And this is coming from the guy that thought Leper Messiah was about a freakshow

guest
You may want to rate the tab now too:
select rating
Please do not post tabs as comments. Select "correction" instead!