Oops, an error
Loading. Please wait.

The God That Failed Tab

version 1
version 1

Solo

Whole song

Interactive

7,257 views 9 this week
3 commentsread comments
1 2 3 4 5
accurate
x 5
add to favorites
launch autoscroll
font size
0
reset
how to read this tab
guitar tuner
Autoscroll
slow
fast
+/-
esc
set tempo
stop
Help us to improve Ultimate-Guitar.com Take our survey!
×
Author/Artist: METALLICA 
Title: The God That Failed Solo 
Album: Metallica 
Transcribed by: Tom Nelson 
Email: kirkhat@hotmail.com 
  
------------------------------------------------------------------------------ 
------------------------------------------------------------------------------ 
------------------------------------------------------------------------------ 
------------------------------------------------------------------------------ 
---7h10p7h10p7h10p7h10p7h10p7h10p7h10p-7h10p7h9p7h9p7h9p7h9p7h9p7h9p7h9p7h9--- 
------------------------------------------------------------------------------ 
                                                                               
  
------------------------------------------------------------------------------ 
----------------------------------------------12------------------------------ 
---------------------------------------12--14b--14-12-11-12-11--11h12p11\7--7- 
---------------------------------12/14---14-------------------14-------------- 
-6h9p6h9p6h9p6h9p6h9p6h9------------------------------------------------------ 
------------------------------------------------------------------------------ 
                                                                               
  
---------------0-0-0--0--0--0-0-0-0-0-0-0-0-0-0--0--10/12---12\1/12--12\------ 
---------------5/7/8/10/12/10/8/7/8/7/5/4/5/7/8/10--10/12---12\1/12--12\------ 
--7-7-7/9---9\---------------------------------------------------------------- 
-9---------------------------------------------------------------------------- 
------------------------------------------------------------------------------ 
------------------------------------------------------------------------------ 
                                                                               
  
------------------------------------------------------------------------------ 
---------------------------------------15b------------------------------------ 
------12-14-14b12----14b12-14b12----12-14b----9/11/12/14/16\14\12/16-14-12---- 
-7/14-------------14-------------14------------------------------------------- 
----------------------------------------------7/-9/10/12/14\12\10/14-12-10---- 
------------------------------------------------------------------------------ 
                                                                               
  
-------------------------------------14h15p14--14-15-17-19-1919191919--------- 
-------------------14h15p14--14-15-17--------17------------------------------- 
-11-9-9-7-6---6-7^---------16------------------------------------------------- 
------------9----------------------------------------------------------------- 
--9-7------------------------------------------------------------------------- 
------------------------------------------------------------------------------ 
                                                                               
  
-19191919--1919191919-191919191919p17p15-19-19p17p15-19-19p17p15----15h17----- 
-----------------------------------------------------------------17----------- 
------------------------------------------------------------------------------ 
------------------------------------------------------------------------------ 
------------------------------------------------------------------------------ 
------------------------------------------------------------------------------ 
                                                                               
  
-19p17p15h17p15----15h17-19--19p17p15----19p17p15----19p17p15----19p17p15----- 
----------------17--------------------17----------17----------17----------17-- 
------------------------------------------------------------------------------ 
------------------------------------------------------------------------------ 
------------------------------------------------------------------------------ 
------------------------------------------------------------------------------ 
                                                                               
  
-15-19p17p15\14-17p15p14\12-15p14p12\10-14p12p10\9-12p10p9\7-10p9p7---7------- 
--------------------------------------------------------------------8---8----- 
------------------------------------------------------------------------------ 
------------------------------------------------------------------------------ 
------------------------------------------------------------------------------ 
------------------------------------------------------------------------------ 
       * *     * *       * *     * *                                           
  
-------------------------------------------22b-22b-19-22-19h22p19----19------- 
------------------------------------------------------------------22----22b--- 
------------------------------------------------------------------------------ 
-4h5p4-------------4h5p4------------------------------------------------------ 
-------7-5-4\2-----------7-5-4\2---------------------------------------------- 
---------------5-3---------------5-3------------------------------------------ 
                                                                               
  
-19-----19-----19-----19-----19-----19-22p19----19-22p19-22p19----19-22p19---- 
----22b----22b----22b----22b----22b----------22----------------22------------- 
------------------------------------------------------------------------------ 
------------------------------------------------------------------------------ 
------------------------------------------------------------------------------ 
------------------------------------------------------------------------------ 
                                                                               
  
-22p19----19-22p19----19-22p19-22p19-19--------------------------------------- 
-------22----------22-------------------22-22bp19-22b-22p19------------------- 
------------------------------------------------------------21-19----19-21b--- 
------------------------------------------------------------------21---------- 
------------------------------------------------------------------------------ 
------------------------------------------------------------------------------ 
                                                                               
  
------------------------------------------------------------------------------ 
------------------------------------------------------------------------------ 
-21-21-21-21-21-21-21-21-21-19------------------------------------------------ 
-------------------------------21--------------------------------------------- 
------------------------------------------------------------------------------ 
------------------------------------------------------------------------------ 
                                                                               
  
------------------------------------------------------------------------------ 
------------------------------------------------------------------------------ 
------------------------------------------------------------------------------ 
------------------------------------------------------------------------------ 
------------------------------------------------------------------------------ 
------------------------------------------------------------------------------ 
                                                                               
Suggest correction
What's this?
You can suggest a correction to this tab. Community and Mods will review your correction and vote to approve or reject it.
comments
print report bad tab
3 comments total.
+1 reply
Prowler15 201 wrote on July 19 2006, 03:18 pm

The solo is perfect but you forgot one small thing...its dropped half a step

0 reply
markokucerija 17 wrote on June 9 2016, 07:34 pm

it's good enough.

0 reply
Prowler15 201 wrote on July 19 2006, 03:19 pm

*half a step down

guest
You may want to rate the tab now too:
select rating
Please do not post tabs as comments. Select "correction" instead!