Oops, an error
Loading. Please wait.

The God That Failed Tab

version 3
version 3

Whole song

Interactive

24,564 views 81 this week
5 commentsread comments
1 2 3 4 5
x 8
add to favorites
launch autoscroll
font size
0
reset
how to read this tab
guitar tuner
Autoscroll
slow
fast
+/-
esc
set tempo
stop
Help us to improve Ultimate-Guitar.com Take our survey!
×
Author
Okay first i need to inform you for that the first part im going to combine to two 
parts the one between james and kirk, because i am feeling lazy today....

plz rate...or comment

*Thank you*
<------------------------------------------------------------------------>


First is the bass and drums...


E|-------------------------------------------------------------------------|
B|-------------------------------------------------------------------------|
G|----------------14-14-9~-----------------------------14-14-9~------------|
D|-------------------------------------------------------------------------|
A|-----10-10-7~--------------10-10-7~------10-10-7~---------------10-10-7--|
E|-------------------------------------------------------------------------|

During the slide part at the end of this riff James slid up from the 2nd on the A string 
kirk slid down from the 10th fret on the low E


Both Guitars

E|------------------------------------------------------------------|
B|------------------------------------------------------------------|
G|------------------------------------------------------------------|
D|------------9-9---------------9-----------7-----------------------|
A|-10-10-7--------7-----10-10-7---7-10-10-7---7--10-10-7---5-5-7----|
E|---------0--------0------------------------------------0-------0--|

(Continued)

E|-----------------------------------|
B|-----------------------------------|
G|-----------------------------------|
D|----------9----4h5p4---------------|
A|--10-10-7---7--------7-5-4\2-------|
E|-----------------------------5-3-2-|

  (PLAY SIX TIMES)  (both guitars still)
E|----------------------------------------------------|
B|----------------------------------------------------|
G|----------------------------------------------------|
D|----------------------------------------------------|
A|-3-2-2-2---3--2-2-2---3--2-2--5-2--3--2-2-2-3-------|
E|-1-0-0-0---1--0-0-0---1--0-0--3-0--1--0-0-0-1-------|
P.M. - - -      - - -      - -        - - -


Both Guitars
E|----------------------------------------------------------------------|
B|----------------------------------------------------------------------|
G|----------------------------------------------------------------------|
D|------------9-9---------------9-----------7----------------9----------|
A|-10-10-7--------7-----10-10-7---7-10-10-7---------10-7--7-----7--7-10-|
E|---------0--------0-------------------------3/7-----------------------|


(Continued)
E|------------------------|
B|------------------------|
G|------------------------|
D|-------9----------------|
A|-7--7-----7---7---9-----|
E|--------------8---7-----|


 (PLAY 4 More Times) Both Guitars STILL!!
E|----------------------------------------------------|
B|----------------------------------------------------|
G|----------------------------------------------------|
D|----------------------------------------------------|
A|-3-2-2-2---3--2-2-2---3--2-2--5-2--3--2-2-2-3-------|
E|-1-0-0-0---1--0-0-0---1--0-0--3-0--1--0-0-0-1-------|
P.M. - - -      - - -      - -        - - -

Both guitars SSSSTTTIIIILLLL!!!!
E|----------------------------------------------------------------------|
B|----------------------------------------------------------------------|
G|----------------------------------------------------------------------|
D|------------9-9---------------9-----------7----------------9----------|
A|-10-10-7--------7-----10-10-7---7-10-10-7---------10-7--7-----7--7-10-|
E|---------0--------0-------------------------3/7-----------------------|


(Continued)
E|------------------------|
B|------------------------|
G|------------------------|
D|-------9----------------|
A|-7--7-----7---7---9-----|
E|--------------8---7-----|

E|----------------------------------------|
B|----------------------------------------|
G|----------------------------------------|
D|----------------------------------------|
A|-----------9-------------9-----9--7-----|
E|-10--7--7-----7--10-7--7---7---7--5-----|

E|----------------------------------------|
B|----------------------------------------|
G|----------------------------------------|
D|---------9----------------9-------------|
A|-10-7--7---7----7-10-7--7---7------7--9-|
E|-------------------------------0---8--7-|

E|----------------------------------------|
B|----------------------------------------|
G|----------------------------------------|
D|----------------------------------------|
A|-----------9-------------9-----9--7-----|
E|-10--7--7-----7--10-7--7---7---7--5-----|

E|----------------------------------------|
B|----------------------------------------|
G|----------------------------------------|
D|----------------------------------------|
A|-----------9-------------9--------------|
E|-11--7--7-----7--11-7--7---7---7\-------|

YAY!!! SOLO TIME (my favorite part)

OKay this can get kinda hard if your fingers arent loose

Tremelo back and forth 7 and 10,  and 7 and 9
E|----------------------------------------------------|
B|----------------------------------------------------|
G|-----------------------------------------12---------|
D|-(TREMELO)-----------(Tremelo)-----12/14----14-14b--|
A|-7-(10)--------------7-(9)--------------------------|
E|----------------------------------------------------|


(Cont...)
E|-----------------------------------------------------------|
B|--12-------------------------------------------------------|
G|-----14-12-11-12-11---------11h12p11\7--7--7-7-7/9--9-(9)--|
D|--------------------14--------------------9----------------|
A|-----------------------------------------------------------|
E|-----------------------------------------------------------|


(TREMELO THIS WHOLE LINE)(sorry if this part is hard to read)
E|-0-0-0-0--0--0--0-0-0-0-0-0-0-0-0-0--------|
B|-5/7/8/10\12\10\8/7/8/7/5/4/5/7/8/10-------|
G|-------------------------------------------|
D|-------------------------------------------|
A|-------------------------------------------|
E|-------------------------------------------|

(CONT...) (TREMELO both 12th frets)
E|-12\-1-/-12-\-1----------------------------------------------------|
B|-12\-1-/-12-\-1------------------------------------------------15b-|
G|------------------------12-14-14b-12-----14b-12--14b-12----12--14b-|
D|-------------------7/14--------------14-----------------14---------|
A|-------------------------------------------------------------------|
E|-------------------------------------------------------------------|
TM.-        -


E|-------------------------------------------|
B|-------------------------------------------|
G|-9/-11/-12/-14/-16--X-X-14--X-X-12--11--9--|
D|-------------------------------------------|
A|-7/-9/--12/-12/-16--X-X-12--X-X-10--9---7--|
E|-------------------------------------------|


E|-----------------------------------------14h15p14----14-15-17------|
B|--------------------14h15p14----14-15-17----------17---------------|
G|-9---7-6---6-7a--------------16------------------------------------|
D|---------9---------------------------------------------------------|
A|-------------------------------------------------------------------|
E|-------------------------------------------------------------------|

         (19)         (19)         (19)       (19)
E|-19--1919191919---19191919---1919191919---19191919-|
B|---------------------------------------------------|
G|---------------------------------------------------|
D|---------------------------------------------------|
A|---------------------------------------------------|
E|---------------------------------------------------|

E|-19-19p17p15--19b17b15--19b1715----15h17-19p17p15h17p15----15h17-19-|
B|--------------------------------17----------------------17----------|
G|--------------------------------------------------------------------|
D|--------------------------------------------------------------------|
A|--------------------------------------------------------------------|
E|--------------------------------------------------------------------|


E|-19p17p15----19p17p15-----19p17p15-----15--|
B|----------17----------17-----------17------|
G|-------------------------------------------|
D|-------------------------------------------|
A|-------------------------------------------|
E|-------------------------------------------|

E|-19p17p15\14--17p15p14\12--15p14p12/10--14p12p10\9--12p10p9\7-10p9p7--7---|
B|---------------------------------------------------------------------8--8-|
G|--------------------------------------------------------------------------|
D|--------------------------------------------------------------------------|
A|--------------------------------------------------------------------------|
E|--------------------------------------------------------------------------|


E|-------------------------------------------|
B|-------------------------------------------|
G|-------------------------------------------|
D|--4h5p4---------------4h5p4----------------|
A|--------7-5-4\2-------------7-5-4\2--------|
E|-----------------5-3----------------5-3----|

E|--22b--22b-19h22p19h22p19----19--19---19---19---19---19---19---19---19-|
B|--------------------------22--22b--22b--22b--22b--22b--22b--22b--22b---|
G|-----------------------------------------------------------------------|
D|-----------------------------------------------------------------------|
A|-----------------------------------------------------------------------|
E|-----------------------------------------------------------------------|

E|-22p19--19-22p19-22p19---19-22p19---19-22p19-22p19-19----------------|
B|------22--------22------22--------22------------------22-22b (22)p19-|
G|---------------------------------------------------------------------|
D|---------------------------------------------------------------------|
A|---------------------------------------------------------------------|
E|---------------------------------------------------------------------|


E|---------------------------------------------|
B|-22b--22p19----------------------------------|
G|------------21-19----19-21b--21-21-21-21-21--|
D|------------------21-------------------------|
A|---------------------------------------------|
E|---------------------------------------------|


E|----------------------------------|
B|----------------------------------|
G|-21-21-21-21---19-----------------|
D|------------------12--21~~~~~~----|
A|----------------------------------|
E|----------------------------------|


Whew!!! if you can still feel your fingers than the rest is a breeze

E|----------------------------------------|
B|----------------------------------------|
G|----------------------------------------|
D|---------9----------------9-------------|
A|-10-7--7---7----7-10-7--7---7------7--9-|
E|-------------------------------0---8--7-|


E|----------------------------------------|
B|----------------------------------------|
G|----------------------------------------|
D|----------------------------------------|
A|-----------9-------------9-----9--7-----|
E|-10--7--7-----7--10-7--7---7---7--5-----|


E|-------------------------------------------------------------------------|
B|-------------------------------------------------------------------------|
G|----------------14-14-9~-----------------------------14-14-9~------------|
D|-------------------------------------------------------------------------|
A|-----10-10-7~--------------10-10-7~------10-10-7~---------------10-10-7--|
E|-------------------------------------------------------------------------|


E|----------------------------------------------------|
B|----------------------------------------------------|
G|----------------------------------------------------|
D|----------------------------------------------------|
A|-3-2-2-2---3--2-2-2---3--2-2--5-2--3--2-2-2-3-------|
E|-1-0-0-0---1--0-0-0---1--0-0--3-0--1--0-0-0-1-------|

E|----------------------------------------|
B|----------------------------------------|
G|----------------------------------------|
D|---------9----------------9-------------|
A|-10-7--7---7----7-10-7--7---7------7--9-|
E|-------------------------------0---8--7-|


E|----------------------------------------|
B|----------------------------------------|
G|----------------------------------------|
D|----------------------------------------|
A|-----------9-------------9-----9--7-----|
E|-10--7--7-----7--10-7--7---7---7--5-----|


E|----------------------------------------|
B|----------------------------------------|
G|----------------------------------------|
D|---------9----------------9-------------|
A|-10-7--7---7----7-10-7--7---7------7--9-|
E|-------------------------------0---8--7-|


E|----------------------------------------|
B|----------------------------------------|
G|----------------------------------------|
D|----------------------------------------|
A|-----------9-------------9-----9--7-----|
E|-10--7--7-----7--10-7--7---7---7--5-----|


E|-------------------------------------------------|
B|-------------------------------------------------|
G|-------------------------------------------------|
D|-------------------------------------------------|
A|---------------------------------------2---------|
E|-7---0--0---3---0--0--0-0-0-0--3--0--0---0--3--0-|
P.M.                    - - - -


E|--------------------------------------|
B|--------------------------------------|
G|--------------------------------------|
D|--------------------------------------|
A|-----------9-------------9------------|
E|-10--7--7-----7--10-7--7---7----------|


      (TWO TIMES)
E|-------------------------------------|
B|-------------------------------------|
G|-------------------------------------|
D|---------9----------------9----------|
A|-10-7--7---7----7-10-7--7---7--------|
E|-------------------------------------|


E|-------------------------------------|
B|-------------------------------------|
G|-------------------------------------|
D|---------9------------------9--------|
A|-10-7-7-7---7--7-7-10-7-7-7---7-7-7--|
E|-------------------------------------|


(three times)
E|-------------------------------------|
B|-------------------------------------|
G|-------------------------------------|
D|--4h5p4------------------------------|
A|--------7-5--4\2---------------------|
E|-----------------5-3-----------------|


           (LET RING)(CLEAN TONE)
E|-------------------------0------------|
B|--------------------0-----------------|
G|---------------0----------------------|
D|-----------2--------------------------|
A|-------2------------------------------|
E|---0----------------------------------|



************************************

| (n)  Ghost note
| h    Hammer-on
| p    Pull-off
| b    Bend
| /    Slide up
| \    Slide down
| ~    Vibrato

************************************
Suggest correction
comments
print report bad tab
5 comments total. Showing first comments.
+1 reply
HH_Emo_666 242 Apr 10, 2009 06:26 PM

this is a half step down

0 reply
GrimmRocker 35 Apr 10, 2009 07:35 PM

okey i just named it by the string name i didnt worry about the tuning to much...

0 reply
f3l18ipsk8erm 35 Aug 10, 2010 12:06 PM

i think the first bend in the solo is on the 14th fret of G not D...other than that this tab is ****in sweet

guest
You may want to rate the tab now too:
select rating
Wanna post a correction for this tab? Suggest correction