Oops, an error
Loading. Please wait.

The Judas Kiss Tab

version 2
version 2

Intro

Whole song

6,141 views 1 this week
1 commentread comment
1 2 3 4 5
x 4
add to favorites
launch autoscroll
font size
0
reset
how to read this tab
guitar tuner
Autoscroll
slow
fast
+/-
esc
set tempo
stop
Help us to improve Ultimate-Guitar.com Take our survey!
×
Author
Difficulty
intermediate
this is my first real tab, it's the first minute or so, sorry if it's not good, most of 
sounds good to me, sorry it's not really uniform.


e-------------------------|
b-------------------------|
g-------------------------|
d-------------------------|
a-0-5-0000-5-7~~-14\0-----|
e-0-3-0000-3-5~~-12\0-----|

e-------------------------|
b-------------------------|
g-------------------------|
d-------------------------|
a-0-5-000000-5-7~~--------|
e-0-3-000000-3-5~~--------|

e----------------------------------|
b----------------------------------|
g----------------------------------|
d----------------------------------|
a-9\--10\-8\-9--3-0----------------|
e-7\--8-\-6\-7--1-0----------------|

e-----------------------------------|
b-----------------------------------|
g-----------------------------------|
d-----------------------------------|
a--5/7/10-2-2-2-2-2-2---------------|
e--3/5/8--0-0-0-0-0-0---------------|

e--------------------------|
b--------------------------|
g--------------------------|
d--9~~9~~7~~9~~------------|
a--------------------------|
e--------------------------|

e--------------|
b--------------|
g--------------|
d---6---5------|X4
a-4-4-4-3------|
e-2---2--------|

e----------------|
b----------------|
g----------------|
d----------------|
a--5^0-5^0-5^0---|
e--3^0-3^0-3^0---|

e---------------------------|
b---------------------------|
g---------------------------|
d---------------------------|
a-0-0-5-7-5-0---5^0-5^0-3^0-|
e-0-0-3-5-3-0---3^0-3^0-3^0-|

e-----------------------------|
b-----------------------------|
g-----------------------------|
d-----------------------------|
a-0-0-5-7-0-0-5-7-0-0-5-7-5-0-|
e-0-0-3-5-0-0-3-5-0-0-3-5-3-0-|

e-------------------------|
b-------------------------|
g-------------------------|
d-------------------------|
a--12~-12-12-12-----------|
e--10~-10-10-10-----------|
Suggest correction
comments
print report bad tab
1 comment total.
0 reply
eastwdbois 61 Feb 16, 2009 11:09 AM

kick ass

guest
You may want to rate the tab now too:
select rating
Wanna post a correction for this tab? Suggest correction