Oops, an error
Loading. Please wait.

The Judas Kiss Tab

version 1
version 1

Solo

Whole song

8,327 views 1 this week
3 commentsread comments
1 2 3 4 5
x 4
add to favorites
launch autoscroll
font size
0
reset
how to read this tab
guitar tuner
Autoscroll
slow
fast
+/-
esc
set tempo
stop
Help us to improve Ultimate-Guitar.com Take our survey!
×
Author
Difficulty
advanced
Solo
E|-------------------------|-----------------------------|
B|-------------------------|-15-------15-----------------|
G|-------------------15----|-15^^-----15vv-12--------12--|
D|-------------14----------|-------------------14-14-----|
A|-------13----------------|-----------------------------|
E|-12----------------------|-----------------------------|

E|-----------------------------------|
B|-------------12---14^^-p12----12^--|
G|-------------12---14^^-p12----12^--|
D|-14-14-14-14---------------14------|
A|-----------------------------------|
E|-----------------------------------|

E|-------------------------------|
B|--------------------------12^--|
G|-------------s16-12-------12^--|
D|-14-14-14-14----------14-------|
A|-------------------------------|
E|-------------------------------|

E|-10p8p7--------10p8p7---------|
B|--------10p8p7--------10p8p7--|
G|------------------------------|
D|------------------------------|
A|------------------------------|
E|------------------------------|

E|-12p10p8---------12p10p8----------|
B|---------12p10p8---------12p10p8--|
G|----------------------------------|
D|----------------------------------|
A|----------------------------------|
E|----------------------------------|


E|-14p12p10----------14p12p10-----------|
B|----------14p12p10----------14p12p10--|
G|--------------------------------------|
D|--------------------------------------|
A|--------------------------------------|
E|--------------------------------------|

E|-15p14p12----------15p14p12-----------|
B|----------15p14p12----------15p14p12--|
G|--------------------------------------|
D|--------------------------------------|
A|--------------------------------------|
E|--------------------------------------|

E|-19p17p15----------19p17p15----------19p17p15----------19^----|
B|----------19p17p15----------19p17p15----------19p17p15--------|
G|--------------------------------------------------------------|
D|--------------------------------------------------------------|
A|--------------------------------------------------------------|
E|--------------------------------------------------------------|

This sounds to me like a tremelo pick with both strings
E|-x-v-v-v-v-v-v-v-v-v-v-|
B|-x-v-v-v-v-v-v-v-v-v-v-|
G|-----------------------|
D|-----------------------|
A|-----------------------|
E|-----------------------|

E|-------------------------------|
B|-------------------------------|
G|-2b4----b2p0h2p0h2p0h2p0h2p0h2-|
D|-------------------------------|
A|-------------------------------|
E|-------------------------------|

E|---------------------------------------|
B|---------------------------------------|
G|-2^^-0h2p0-----------0-----------------|
D|-----------2p0---0h2---0h2-0h3-0h2-0h3-|
A|---------------2-----------------------|
E|---------------------------------------|

E|-----------------------------------------|
B|-----------------------------------------|
G|-0h2-0h3-0h2-0h3-0h5h7-0h7h8-0h5h7-0h7h8-|
D|-----------------------------------------|
A|-----------------------------------------|
E|-----------------------------------------|

E|-------------------------------------------------------17s--|
B|-------------------11h13h14-11h13h14-14h15h17-14h15h17------|
G|-12h14h15-12h14h15------------------------------------------|
D|------------------------------------------------------------|
A|------------------------------------------------------------|
E|------------------------------------------------------------|

E|-19-17-14-19-17-14-19-17-14-19-17-14-19-17-14-19-17-14-etc--|
B|------------------------------------------------------------|
G|------------------------------------------------------------|
D|------------------------------------------------------------|
A|------------------------------------------------------------|
E|------------------------------------------------------------|

E|-17p15p14----------17p15p14-17p15p14----------17p15p14-|
B|----------17p15p14-------------------17p15p14----------|
G|-------------------------------------------------------|
D|-------------------------------------------------------|
A|-------------------------------------------------------|
E|-------------------------------------------------------|

E|-19p17p15-19p17p15-19p17p15-19p17p15-etc-x-x-x-x-x-x-x-x-x-|
B|-----------------------------------------x-x-x-x-x-x-x-x-x-|
G|-----------------------------------------------------------|
D|-----------------------------------------------------------|
A|-----------------------------------------------------------|
E|-----------------------------------------------------------|

E|------------------------------|
B|-2b4~~~~~~~~~~~~~~------------|
G|------------------------------|
D|------------------------------|
A|------------------------------|
E|------------------------------|
Suggest correction
comments
print report bad tab
3 comments total.
0 reply
Swanny1989 124 May 23, 2010 11:25 PM

Call me what you will if you want but what exactly is tremelo picking?

0 reply
Italyplayer 64 May 31, 2010 10:19 AM

it means wen you play the strings down and in the same moment you play with tremolo

+1 reply
nicholasv98 10 Jul 18, 2011 08:29 PM

You know you just copied this from juzcook except he did the whole song, u didnt event finish the solo

guest
You may want to rate the tab now too:
select rating
Wanna post a correction for this tab? Suggest correction