Oops, an error
Loading. Please wait.

The Memory Remains Bass Tab

version 3
version 3

Whole song

Interactive

3,234 views 9 this week
no commentswrite comment
1 2 3 4 5
please rate
add to favorites
launch autoscroll
font size
0
reset
guitar tuner
Tab Pro tools
  • play this tab
  • loop segment
  • change instrument
  • show fretboard
  • metronome
×
Best way to learn
"The Memory Remains"
Autoscroll
slow
fast
+/-
esc
set tempo
stop
Contributor
Difficulty
Tuning
intermediate
D# G# C# F# A# D#
-------------------------------------------------------------------------------
                             The Memory Remains - Metallica
-------------------------------------------------------------------------------
Tabbed by: MetallicaDMRTL
Tuning:Bb Eb Ab Db Gb, half

hey guys, whats up? another master bass tab "comin ur wayyyyy!!!"
the link is here enjoi (btw these fills at points are tricky to hear what hes playin but 
there like 99% accurate, any suggestions comment PLZ :)

master bass link is here:

http://www.youtube.com/watch?v=vDefEjeFB5g

Gb|-----| intro play just the last note before the verse
Db|-----|
Ab|-----|
Eb|--1--|
Bb|-----|

Gb|-------|-----------|-------|-----------|---------|---------|
Db|-------|-----------|-------|-----------|---------|---------|
Ab|-----7-|-------5h7-|-----7-|-------3h5-|-----7---|-----5h7-|
Eb|-0-0---|-0-0-3-----|-0-0---|-0-0-3-----|-0-0---0-|-0-3-----|
Bb|-------|-----------|-------|-----------|---------|---------|

Gb|-----------|---------------|
Db|-----------|---------------|
Ab|-----2-2/7-|-(7)-7-5-7-5-2-|
Eb|-3-3-------|---------------|
Bb|-----------|---------------|

Gb|-------|-----------|-------|-----------|---------|---------|
Db|-------|-----------|-------|-----------|---------|---------|
Ab|-----7-|-------5h7-|-----7-|-------3h5-|-----7---|-----5h7-|
Eb|-0-0---|-0-0-3-----|-0-0---|-0-0-3-----|-0-0---0-|-0-3-----|
Bb|-------|-----------|-------|-----------|---------|---------|

Gb|---------|
Db|---------|
Ab|-----2-2-|
Eb|-3-3-----|
Bb|---------|

Gb|-------|-----------|-------|-----------|---------|---------|
Db|-------|-----------|-------|-----------|---------|---------|
Ab|-----7-|-------5h7-|-----7-|-------3h5-|-----7---|-----5h7-|
Eb|-0-0---|-0-0-3-----|-0-0---|-0-0-3-----|-0-0---0-|-0-3-----|
Bb|-------|-----------|-------|-----------|---------|---------|

Gb|-----------|---------------------|
Db|-----------|---------------------|
Ab|-----2-2/7-|-(7)-7-5-7-5---5-7-5-|
Eb|-3-3-------|-------------7-------|
Bb|-----------|---------------------|

Gb|------------|------------|---------------------|
Db|------------|------------|---------------------|
Ab|--------5-7-|--------5-7-|-------5----5----5-7-|
Eb|-0-0-00-----|-0-0-00-----|-0-0-0---3----3------|
Bb|------------|------------|---------------------|

Gb|-----------|---------------|---------|
Db|-----------|---------------|---------|
Ab|-------5-7-|---------5-7-7-|-7-5-----| 
Eb|-0-0-0-----|-0-0~~ --------|-----3---|
Bb|-----------|---------------|-------6-|

Gb|-------|-----------|---------|---------|---------|---------|
Db|-------|-----------|---------|---------|---------|---------|
Ab|-----7-|-------5h7-|-----7---|-----3h5-|-----7---|-----5h7-|
Eb|-0-0---|-0-0-3-----|-0-0---0-|-0-3-----|-0-0---0-|-0-3-----|
Bb|-------|-----------|---------|---------|---------|---------|

Gb|-----------|-------------|
Db|-----------|-------------|
Ab|-----2-2/7-|-(7)-7-5-7-5-|
Eb|-3-3-------|-------------|
Bb|-----------|-------------|

Gb|-------|-----------|-------|-----------|-------|---------|
Db|-------|-----------|-------|-----------|-------|---------|
Ab|-----7-|-------5h7-|-----7-|-------3h5-|-----7-|-----5h7-|
Eb|-0-0---|-0-0-3-----|-0-0---|-0-0-3-----|-0-0---|-0-3-----|
Bb|-------|-----------|-------|-----------|-------|---------|

Gb|---------|
Db|---------|
Ab|-----2-2-|
Eb|-3-3-----|
Bb|---------|

Gb|-------|-----------|-------|-----------|---------|---------|
Db|-------|-----------|-------|-----------|---------|---------|
Ab|-----7-|-------5h7-|-----7-|-------3h5-|-----7---|-----5h7-|
Eb|-0-0---|-0-0-3-----|-0-0---|-0-0-3-----|-0-0---0-|-0-3-----|
Bb|-------|-----------|-------|-----------|---------|---------|

Gb|-----------|---------------------|
Db|-----------|---------------------|
Ab|-----2-2/7-|-(7)-7-5-------5-7-5-|
Eb|-3-3-------|---------5-3-7-------|
Bb|-----------|---------------------|

Gb|------------|------------|----------------------|
Db|------------|------------|----------------------|
Ab|--------5-7-|--------5-7-|--------5----5----5-7-|
Eb|-0-0-00-----|-0-0-00-----|-0-0-00---3----3------|
Bb|------------|------------|----------------------|

Gb|------------|------------|-------------|
Db|------------|------------|-------------|
Ab|--------5-7-|--------5-7-|--------5-7/-|
Eb|-0-0-00-----|-0-0-00-----|-0-0-0-------|
Bb|------------|------------|-------------|

Gb|------10----------12-----|--------------------------------------|
Db|---10----10----12----12\-|--------------------------------7---4-|
Ab|-8----------10-----------|-7--7-7\2--2-2h3---------2-3--5---2---|
Eb|-------------------------|------------------3-3-3---------------|
Bb|-------------------------|--------------------------------------|

Gb|------------------------------------------------|
Db|------------------------------------------------|
Ab|---7--7-7\2--2-2/10-10--12-12--------14-12-10-9-|
Eb|-0----------------------------10-10-------------|
Bb|------------------------------------------------|

Gb|----------------------------------------|
Db|----------------------------------7---4-|
Ab|-----7\2--2--2-2h3---------2-3--5---2---|
Eb|-0-0----------------3-3-3---------------|
Bb|----------------------------------------|

Gb|-----------------------------------------------|
Db|-----------------------------------14-12-------|
Ab|-----7-7\2--2-2/10-10--12-12-------------14-12-|
Eb|-0-0-------------------------10-10-------------|
Bb|-----------------------------------------------|

Gb|-------------|-------------|-----------------------|
Db|-------------|-------------|-----------------------|
Ab|-------------|-------------|-----------------------|
Eb|-------------|-------------|-----------------------|
Bb|-3-5--5-5--5-|-3-5--5-5--5-|-3-5--5-5--5--5-8--5-8-|

Gb|---------------|----------------|-----------------------|
Db|---------------|----------------|-----------------------|
Ab|---------------|----------------|-----------------------|
Eb|---------------|----------5-7-5-|-----------------------|
Bb|-3-5-5--5-5--5-|-3-5-5--5-------|-3-5--5-5--5--5-8--5-8-|

Gb|------------------|------------------|------------------|
Db|------------------|------------------|------------------|
Ab|------------------|------------------|------------------|
Eb|--------555-7-5-3-|----------555-7-5-|------------------|
Bb|-3-5--5-----------|-5-5--5-5---------|-5--5-8--8-5-8--8-|

Gb|-----------------|-----------------|------------------|
Db|-----------------|-----------------|------------------|
Ab|-----------------|-----------------|------------------|
Eb|-----------------|-----------------|----------------*-|
Bb|-3-5--5/10-12-10-|-3-5--5/10-12-10-|-3-5--5-5--5-5--6-|

Gb|----------------------------------------------------------------------------|
Db|----------------------------------------------------------------------------|
Ab|----------------------------------------------------------------------------|
Eb|-33-3-3-3-3-3-3-3-3-3-3-3-3-3-3-3-3-3-3-3-3\15-15-15-15-15-15-15-15-15-15-|
Bb|----------------------------------------------------------------------------|

Gb|---------|---------|-------|----------|---------|----------------------|
Db|---------|---------|-------|----------|---------|----------------------|
Ab|-----7---|-----5h7-|-----7-|--------5-|-----7---|-----5h7-7-7-7-5------|
Eb|-0-0---0-|-0-3-----|-0-0---|-0--0-3---|-0-0---0-|-0-3-------------3----|
Bb|---------|---------|-------|----------|---------|-------------------66-|

Gb|---------|------------|-------|-----------------|-------|
Db|---------|------------|-------|-------------7-5-|-------|
Ab|-----7---|--------5h7-|-----7-|-----5-7-5-5-----|-----7-|
Eb|-0-0---0-|-0--0-3-----|-0-0---|-5-7-------------|-0-0---|
Bb|---------|------------|-------|-----------------|-------|

Gb|------------|-----------------10----------12----|
Db|------------|--------------10----10----12----12-|   btw the low Eb part
Ab|------------|-----7--5-7/8----------10----------|     "5h7" is right
Eb|-0--0-3-5h7-|-0-0-------------------------------|    but jason plays
Bb|------------|-----------------------------------|     it only here

Gb|-----------------|--------------------|
Db|-----------------|--------------7---4-|
Ab|-7--7-7\2--2-2h3-|-------2-3--5---2---|
Eb|-----------------|-3--3---------------|
Bb|-----------------|--------------------|

Gb|--------------------|---------------------------|
Db|--------------------|---------------------------|
Ab|-----7--7\2--2-2/10-|--12-12--------14-12-10-9\-|
Eb|-0-0----------------|--------10-10--------------|
Bb|--------------------|---------------------------|

Gb|-----------------|--------------------|
Db|-----------------|--------------7---4-|
Ab|-7--7-7\2--2-2h3-|-------2-3--5---2---|
Eb|-----------------|-3--3---------------|
Bb|-----------------|--------------------|

Gb|-----------------------------------------------|
Db|-----------------------------------------------|
Ab|-----7--7\2--2-2/10-10--12-12--------12-10-7-*-|
Eb|-0-0--------------------------10-10----------0-|
Bb|---------------------------------------------5-|

Gb|-12-11-9-|
Db|---------|    listen to the master to get the timing 
Ab|---------| x3      to all three of these
Eb|---------|              ^    ^    ^  
Bb|---------|            3:59 4:06 4:13

thanks for waiting guys this song is a beast fill wise and the low B part with the 
3 and 5's fills on the E's are sorta there but i couldnt get those accurate i 
think they are but i might be wrong, but the rest of this song is 100% accurate, 
and pps the last note before the la la la part that might be over done but sounds 
right still, but u be the judge, it might just be an open Eb by itself though, 
well play as u see fit :)

                             \m/ Metallica \m/
comments
We did not receive enough feedback on this tab! Please rate:
print report bad tab
1 2 3 4 5
I want to post or [tab]
guest
You may want to rate the tab now too:
select rating
Please do not post tabs as comments. Select "correction" instead!